Heaven And Hell - Black Sabbath
00:00 / 00:00
Tabs and lyrics
Tunning: Standard (E A D G B e)
Heaven And Hell


[Figure 1]

e|--------------------------------|--------------------------------|
B|--------------------------------|----------------3-3----3--------|
G|--------------------------------|----------------2-2--x-2--------|
D|9---------------11------12------|5---------------0-0--x-0--------|
A|7---------------9-------10------|3-------------------------------|
E|--------------------------------|--------------------------------|


e|--------------------------------|--------------------------------|
B|--------------------------------|--------------------------------|
G|--------------------------------|--------------------------------|
D|9---------------11------12------|14--1211-9----------------------|
A|7---------------9-------10------|12--10-9-7----------------------|
E|--------------------------------|--------------------------------|


e|--------------------------------|--------------------------------|
B|--------------------------------|----------------3-3----3-3------|
G|--------------------------------|----------------2-2----2-2------|
D|9---------------11------12------|5---------------0-0----0-0------|
A|7---------------9-------10------|3-------------------------------|
E|--------------------------------|--------------------------------|

H H
e|--------------------------------|--------------------------------|
B|--------------------------------|--------------------------------|
G|--------------------------------|---------------------------___--|
D|9---------------11------12------|14--1211-9-------------___-0-2--|
A|7---------------9-------10------|12--10-9-7-------------0-2------|
E|--------------------------------|--------------------------------|


[Figure 2]

e|--------------------------------|--------------------------------|
B|--------------------------------|--------------------------------|
G|--------------------------------|--------------------------------|
D|--------------------------------|--------------------------------|
A|--------------------------------|--------------------------------|
E|0---0-0-0---0-0-0---0-0-0---0-0-|0---0-0-0---0-0-0---0-0-0---0-0-|

C D
So it's on and on and on, it's heaven and hell
Oh, well.


[Figure 3]
(backing guitar plays fig 2)

S
e|--------------------------------|------------------------------------|
B|------------------------12-\----|------------------------------------|
G|------------------------12-\----|------------------------------------|
D|------------------------12-\----|-------------7----------------------|
A|--------9-10-7------------------|--------9-10--------10-9-7----------|
E|-0-0-0----------0--0-0----------|-0--0-0-----------0-----------------|

S
e|--------------------------------|------------------------------------|
B|------------------------12-\----|------------------------------------|
G|------------------------12-\----|------------------------------------|
D|------------------------12-\----|-------------7----------------------|
A|--------9-10-7------------------|--------9-10--------10-9-7----------|
E|-0-0-0----------0--0-0----------|-0--0-0-----------0-----------------|


e|--------------------------------|--------------------------------|
B|--------------------------------|--------------------------------|
G|--------------------------------|--------------------------------|
D|-9------------------------------|--------------------------------|
A|-7------------------------------|--------------------------------|
E|--------------------------------|--------------------------------|

C D
So it's on and on and on,
C D
Oh, it's on and on and on.
C D
It goes on and on and on. Heaven and Hell


This is the mini-bridge in the middle where Dio is singing
"Ooooohhh...oohhh..ohh....yeah yeah yeaaaaaahhhh..."

e|-5--|-----|--5--|--3--|------|-----|--5-----------------------|
B|-8--|--7--|--6--|--5--|--8---|--7--|--5-----------------------|
G|-5--|--7--|--5--|--5--|--7---|--7--|--6-----------------------|
D|-5--|--7--|--7--|--5--|--9---|--7--|--7-----------------------|
A|-7--|--5--|--5--|--3--|--10--|--5--|--7-----------------------|
E|-5--|-----|--5--|--3--|--7---|-----|--5-----------------------|then go to next verse.


C D fig2
And it's on and on and on, on and on and on and on and on and on

on and on and on and on and on and on.


[Figure 2 cont.]


[Solo 1]

B gradually release bend P
e|----------|----------|----------|----------|----------|
B|------____|______ ---|----------|----------|-12-\-----|
G|-___-/----|------\---|----------|-----___--|-12-\-----|
D|-7(9)-----|------(7)-|----------|----14-12-|----------|
A|----------|----------|----------|----------|----------|
E|----------|----------|0---------|----------|----------|

~~~~ ~~~~ ~~~~ H H S
e|--------------------------------------|--------------------------|
B|--------------------------------------|--------------------------|
G|14-12----14-12-------12-----___--12---|-___----------------------|
D|------14-------14-14----12-12-14----12|12-14-14-14-14-\----------|
A|--------------------------------------|--------------------------|
E|--------------------------------------|--------------------------|


B H
e|----------|--____----|----------|--------------------------------------|
B|----------|-(15)17---|----------|12-15-15-12---------------------------|
G|----------|----------|----------|------------14-14-12-----___----------|
D|----------|----------|----------|---------------------14-12-14-14-12---|
A|----------|----------|----------|------------------------------------14|
E|----------|----------|----------|--------------------------------------|


S H H H
e|--------------------------------|---------------------------___--------|
B|--------------------------------|-------------------___-12-12-15-15-15-|
G|--------------------------------|----------___-12--12-14---------------|
D|--------------------------------|---12-12-12-14--14--------------------|
A|12-14-14-10-12-12-9-10-9-10-9-10|/14-----------------------------------|
E|--------------------------------|--------------------------------------|

H
___ H H H H
e|12-15-12-15-___------------------------------|
B|-----------12-15-15-15-___---------___-------|
G|----------------------12-14-14-14-12-14--___-|
D|----------------------------------------12-14|
A|---------------------------------------------|
E|---------------------------------------------|


H H B
e|---------------------------------|-------------------------12---|
B|------___------------------------|-___--12-15--12-15--12-15--12-|
G|-___-12-14-14-14-12---------12-12|14(16)-----14-----14----------|
D|12-14---------------14-14-14-----|------------------------------|
A|---------------------------------|------------------------------|
E|---------------------------------|------------------------------|

S
B ___
e|---12-----|--___-----14-15-17-15-|----------15/17--|
B|-15-------|-15(17)-17------------|-17-17-17--------|
G|----------|----------------------|-----------------|
D|----------|----------------------|-----------------|
A|----------|----------------------|-----------------|
E|----------|----------------------|-----------------|

B B
___ ___ B
e|17(19)-17(19)-17-15----15------------|-___----------------------|
B|--------------------19----19-17-15-17|17(20)---------------17---|
G|-------------------------------------|------------------16----16|
D|-------------------------------------|--------------------------|
A|-------------------------------------|--------------------------|
E|-------------------------------------|--------------------------|


B
e|---___----|-----|-----|-----|-----|-----|-----|-----|-----|
B|--15(17)--|-----|-----|-----|-----|-----|-----|-----|-----|
G|----------|-----|-----|-----|-----|-----|-----|-----|-----|
D|----------|-----|-----|-----|-----|-----|-----|-----|-----|
A|----------|-----|-----|-----|-----|-----|-----|-----|-----|
E|----------|-----|-----|-----|-----|-----|-----|-----|-----|

gradually release bend
B~~~~~~ B_______________ B S
e|----------|--19------|-/--------|-------\--|--___-----|22--___---|
B|---___----|----17-20-|-20(22)---|------20--|-22(24)---|---17/20--|
G|--19(21)--|19--------|----------|----------|----------|----------|
D|----------|----------|----------|----------|----------|----------|
A|----------|----------|----------|----------|----------|----------|
E|----------|----------|----------|----------|----------|----------|

~~~~~~~~~~~
B~~~~~~~~~ B H P
e|---___----|----------|--______-------------|------------______---|
B|--20(22)--|----------|-/------\--15--------|-----------/------\--|
G|----------|-----21---|-19----21----16-15-14|-------12--12-14-12--|
D|----------|---21--21-|---------------------|---------14--------14|
A|----------|----------|---------------------|---------------------|
E|----------|----------|---------------------|---------------------|

H S
________ B ~~~~~~~~
/ \ ___
e|-------------------14-15--|-14---15/17-----15-17|-(19)-15--------|
B|-------------12-15--------|---------------------|--------17------|
G|-------12-14--------------|---------------------|----------------|
D|-12-14--------------------|---------------------|----------------|
A|--------------------------|---------------------|----------------|
E|--------------------------|---------------------|----------------|

~ R B R B R B R B R B R B R B
S _____________________________________________
e|----------|/-----------------------|---------------------\-------|
B|--20/22---|(24)22(24)22(24)22(24)22|(24)22(24)22(24)22(24)-------|
G|----------|------------------------|-----------------------------|
D|----------|------------------------|-----------------------------|
A|----------|------------------------|-----------------------------|
E|----------|------------------------|-----------------------------|

Em5
say that life's a carrousel,
D/F#
spinning fast you've got to ride it well.
G
The world if full of kings and queens who
D/A
blind your eyes then steal your dreams.
Em5
It's heaven and hell.
D/F#
Oh well .

Em5
And they'll tell you that black is really white,
D/F#
the moon is just the sun at night;
G
And when you walk in golden halls, you
D/A
get to keep the gold that falls.
Em5
It's heaven and hell.
D/F#
No,no
Em5
Fool,fool
D/F# G
You got to bleed for the dancer.
D/A Em5
Fool,fool
D/F# G
Look for the answer.
D/A Em5
Fool,fool,fool.


[Slower]

B R B B
e|----------|----------|----------|--------------------------------|
B|----------|----------|----------|--------------------------------|
G|--________|__________|______----|--------------------------------|
D|-/--------|----------|------\---|--------------------------------|
A|-5--(7)---|-5--(7)---|-5--(7)---|--------------------------------|
E|----------|----------|----------|--------------------------------|


[Acoustic outro]

from - Anssi Jauhiainen

tune both guitars 1/2 step down

gtr. 1 5:58 (0:57 left)
e|----------------8-7------------------7----7-8-7------------------------|
B|--here is-----------10-8-7-------------10-------10-8-10-7-8-10-7---7-8-|
G|--few notes----------------9-9h11h12-----------------------------9-----|
D|--that I can't---------------------------------------------------------|
A|--hear-----------------------------------------------------------------|
E|-----------------------------------------------------------------------|

End
e|-7-----------10-8-7------7-- |-----------------------------|
B|---8-7---7-8--------8-10---- |---------10------------------|
G|-------9-------------------- |-9h11h12----(repeat 4 times)-|
D|---------------------------- |-----------------------------|
A|---------------------------- |-----------------------------|
E|---------------------------- |-----------------------------|

6:13 (0:42 left)
e|---------------------8-7-------------------8-7----------10-8-7------7--|
B|-10-8-787---7---10-8-----10-8-7-8-10---7-8-----10-8-6----------8-10----|
G|----------9---9----------------------9----------------9----------------|
D|-----------------------------------------------------------------------|
A|-----------------------------------------------------------------------|
E|-----------------------------------------------------------------------|

6:28 (0:27 left)
e|----------87----7-------------------7-8-7--------------------------|
B|-10-8-7------10---8-10---78-7---7-8-------10-8-7-------7-8-10-8-7--|
G|--------9--------------9------9------------------(9)-9-------------|
D|-------------------------------------------------------------------|
A|-------------------------------------------------------------------|
E|-------------------------------------------------------------------|

6:41 (0:14 left)
e|-7--------8-7--/------------------------\--|
B|---10-8-7-----|10-8-7----------10-7h8h10---| and so on :)
G|---------------\------9-9h11h12---------/--|
D|-------------------------------------------|
A|-------------------------------------------|
E|-------------------------------------------|

gtr. 2
e|---0-----0-----0-----0-------0-----0-------0-----0------0---------|
B|------------------------------------------------------------------|
G|-----0-----0-----0-----0-------0-----0-------0-----0------0-------|
D|-------------------9-----9h10----7-----10p9-----------9-7---------|
A|-7-----9-----10--------------------------------10-----------------|
E|------------------------------------------------------------------|

e|-------0--------0-----0-----0-----0-------------------------------|
B|------------------------------------------------------------------|
G|---------0--------0-----0-----0-----0-----------------------------|
D|-----9------9-----------------------------------------------------|
A|-------9------7-----7-----7-----7---------------------------------|
E|------------------------------------------------------------------|



************************************

| x Dead note
| (n) Ghost note
| h Hammer-on
| p Pull-off
| / Slide up
| \ Slide down

************************************
Song info
Heaven And Hell
Black Sabbath
2001
  • Rock
  • Hard Rock
  • Heavy Metal
Alternative tracks
Similar songs
Rat Salad - Black Sabbath
Double Talkin Jive - Guns N' Roses
Children Of The Sea - Black Sabbath
Nobody Said It Was Easy - The Four Horsemen

Hi! Hope you enjoy backing track experience.
If you want to help us in the development of the project, feel free to donate!