War Pigs - Black Sabbath
00:00 / 00:00
Tabs and lyrics
Tunning: Standard (E A D G B e)
-------------------------------------------------------------------------------
War Pigs - Black Sabbath
-------------------------------------------------------------------------------

By:Jesse gardner


[Intro]

e|------|--------------------------|--------------------------|
B|------|--------------------------|--------------------------|
G|------|--------------------------|--------------------------|
D|-9----|--9--9-9\-7~~-7/9\7/9--9--|-9--9\7-7-7/9--9-9\7-7----|
A|-7----|--7--7-7\-----5/7\5/7--7--|-7--7\5-5-5/7--7-7\5-5----|
E|------|--------------------0-----|--------------------------|


[Verse 1]

(Fills for Verse 1)
e|-----| e|------------|-------|-12\---|
B|-----| B|------------|-------|-12\---|
G|-7/9-| G|--15p12---12|-6tr7--|-12\---|
D|-7/9-| D|--------15--|-------|-------|
A|-5/7-| A|------------|-------|-------|
E|-----| E|------------|-------|-------|


[Bridge]

e|---------------------|--------|------|------|
B|---------------------|-8^(10)-|------|-8tr9-|
G|---------------------|--------|-6tr7-|------|
D|-12-11--10------7/9--|--------|------|------|
A|-10--9--8---7---5/7--|--------|------|------|
E|---------------------|--------|------|------|


[Bridge 2]

e|---------12\---------------|
B|---------12\---------------|
G|---------12\---------------|
D|---------------------------|
A|---------------------------|
E|--0-0-0-0------0-0-0-3^(4)-|
........ .....


[Verse 2]

e|-----------------------------|
B|-----------------------------|
G|-----------------------------|
D|----------2p0---------2p0----|
A|-----------------------------|
E|--0-0-0-0-----0-0-0-------3^-|
....... .....


[Interlude]

e|----------------------------------------------------------------------|
B|----------------------------------------------------------------------|
G|----------------------------------------------------------------------|
D|----------------------------------------------------------------------|
A|-11h12---12p11---11\7---7\5---5h7-7-5h7-7/11/12-11h12---12p11---12h14-|
E|-------0-------0------0-----0-------------------------0-------0-------|

Solo-Stick to the E pentatonic(12th fret) and you should get it. Just a lot of slurs
and bends. I know it but it would take to long to write out. Its pretty easy to figure
out though.


[Outro]

e|----------------------|---------|---------|
B|----------------------|---------|---------|
G|--------7-------7-----|---------|---------|
D|----9-------9-------9-|-9-------|-9--11-9-|
A|--7---7---7---7---7---|-7--9-12-|-7--9--7-|
E|----------------------|----7-10-|---------|

Keep playing the above riff dropping it down two frets at a time until the end of the
song, which has a really sucky ending, and I like to end on an E5.

Progression:
Intro Riff
Verse 1 Riff x7
Verse 1 Riff w/fills x4
Bridge x4
Bridge 2 x4
Verse 2 Riff x8
Bridge 2 x4
Verse 2 Riff x8
Verse 1 Riff x1
Bridge x4
Interlude
Main Solo
Interlude
Intro Riff(a lot faster)
Verse 1 riff x7
Verse 1 riff w/fills x4
Bridge x4
Outro w/endings x4
Outro x4
Outro on 5th Fret x2
Outro on 3rd Fret x2
Solo
Outro
Tunning: Standard (E A D G B e)
Artist: Black Sabbath
Song: War Pigs solo/Luke's wall
Paranoid

Spiders
( I'm Writing down the solo cuz some people can't be bothored
so i'm taken some of my time to right out the tabs for it.)

[Guitar 1]: Dist.
[Guitar 2]: Dist.
[Guitar 3]: Dist.

[Solo]
(Gtr.1)
e|-------|-------------------------------------------|
B|-------|-------------------------------------------|
G|-------|-------------------------------------------|
D|-------|-------------------------------------------|
A|-------|--11/12---12\11---11\7---7\5---5/7--7~~~~--|
E|--12\0-|--------0-------0------0-----0-------------|

e|---------------------------------------|
B|---------------------------------------|
G|---------------------------------------|
D|---------------------------------------|
A|--(7)~~~--5/7---7\5--7--7/11---11/12---|
E|--------------0--------------0-------0-|

e|------------------------------------------|
B|------------------------------------------|
G|------------------------------------------|
D|------------------------------------12h14-|
A|--12\11---11/12---12/14--14~~~~12h14------|
E|--------0-------0-------------------------|

1/4 full
e|-----------------------------------------------12-|
B|--------------------------------------------12----|
G|---------------------12b------------12--14b-------|
D|--14~~~~-------12h14----------12h14---------------|
A|---------12h14-----------12h14--------------------|
E|--------------------------------------------------|

[Gtr.1]
Full Full Full Full Full
e|----------12--------12----------------12--------------12------------|
B|-------12--------12-----15b----15b~~~----15--12--15b------15-15p12--|
G|---14b-------14b----------------------------------------------------|
D|--------------------------------------------------------------------|
A|--------------------------------------------------------------------|
E|--------------------------------------------------------------------|

[Gtr.2]
Full Full Full Full Full
e|----------12--------12---------------12-----------------------------|
B|-------12--------12-----15b---15b~~~----15--12---------12----15p12--|
G|---14b-------14b---------------------------------14b----------------|
D|--------------------------------------------------------------------|
A|--------------------------------------------------------------------|
E|--------------------------------------------------------------------|

[Gtr.3]
e|--------------------------------------------------------------------|
B|--------------------------------------------------------------------|
G|--------------------------------------------------------------------|
D|--------------------------------------------------------------------|
A|--------------------------------------------------------------------|
E|--------------------------------------------------------------------|

[Gtr.1]
Full Full Full
e|-----------------------------------------------------12-----15--15b----|
B|--15p12-----12---15p12----12----15p12-----12-----------15b~~-----------|
G|--------14-------------14-------------14-------14b---------------------|
D|-----------------------------------------------------------------------|
A|-----------------------------------------------------------------------|
E|-----------------------------------------------------------------------|

[Gtr.2]
Full
e|-----------------------------------------------------------------------|
B|------12--15p12-----------15p12----------------------------------------|
G|--14--14-------14-----14--------14p12-14b----14-12h14p12---12----------|
D|--------------------------------------------------------14---14-14p12--|
A|---------------------------------------------------------------------14|
E|-----------------------------------------------------------------------|

[Gtr.3]
Full Full
e|--------------------------------------------------12----------15---15b-|
B|--15p12---15p12----12--15p12----12--15p12------------------------------|
G|-------14------14-----------14-----------14b---------------------------|
D|-----------------------------------------------------------------------|
A|-----------------------------------------------------------------------|
E|-----------------------------------------------------------------------|

[Gtr.1]
Full Full Full Full
e|-------15b---15b-----15b---(15)-12-------------------------------------|
B|-----------------------------------15--12-----12--15--15p12------------|
G|------------------------------------------14b--------------15--14p12---|
D|--------------------------------------------------------------------14-|
A|-----------------------------------------------------------------------|
E|-----------------------------------------------------------------------|

[Gtr.2]
*Full
e|-----------------------------------------------------------12----------|
B|---------------------------------------------------12---------15P12----|
G|--------------------------------------------12-14B------------------14-|
D|------12---------------------12---(12)h-14-----------------------------|
A|-----------14\12--10---12h14-------------------------------------------|
E|-----------------------------------------------------------------------|

[Gtr.3]
Full Full Full
e|-----15b--(15)---12---------12-----------------------------------------|
B|---------------------15b~~~----15--12-------12------15p12--------------|
G|--------------------------------------14b---12------------14-14p12-----|
D|------------------------------------------------14------------------14-|
A|-----------------------------------------------------------------------|
E|-----------------------------------------------------------------------|

[Gtr.1]
Full
e|----------------------------------------------------|-------------------|
B|--15P12---------------------------------------------|-------------------|
G|--------14-14B---(14)P12----------------------------|-------------------|
D|---------------------------14P12---14---------------|-------------------|
A|--------------------------------------14----10H12-10|-------------------|
E|----------------------------------------------------|-10-12--12-12--(12)|

[Gtr.2]
1/4
e|----------------------------------------------------|-------------------|
B|----------------------------------------------------|-------------------|
G|-12----(12)b----------------------------------------|-------------------|
D|----------------14p--12--12h14--14~~~~~~~~~---------|-------------------|
A|----------------------------------------------------|-------------------|
E|-------------------------------------------------12-|--0----------------|

[Gtr.3]
1/2 Full
e|---------------------------12-----------------------|-------------------|
B|-----------------------15----15--12-----------------|-------------------|
G|-12--14-14b--(14)p12--------------14b--(14)p12-14-12|-------------------|
D|----------------------------------------------------|-------------------|
A|----------------------------------------------------|-------------------|
E|----------------------------------------------------|-------------------|

[Gtr.3]
(Tacet)

[Gtr.1 & 2]
Full Full Full Full-----
e|----------------------------------------------------|
B|----------------------------------------------------|
G|---9b---9b---9b---9b-------(9)---7-------7--/--9~~~~|
D|-------------------------------------9--------------|
A|----------------------------------------------------|
E|----------------------------------------------------|

e|----------------------------------------------------|
B|----------------------------------------------------|
G|-(9)-\-7---------7-h-9~~~~~~------7--9~~~~~~-7--9---|
D|----------7-h-9-------------7-h-9-------------------|
A|----------------------------------------------------|
E|----------------------------------------------------|

Full---- tr~~~~~~~~~~~~ Full---- tr~~~~~~~~~ Full---- tr~~~~~~~~~~
e|-------------------------------------------------------------------------|
B|-------------------------------------------------------------------------|
G|--9b---(9)-(7h9)-p7---------9b---(9) (7h9)-p7------9b---(9)-(7h9)-p7-----|
D|-------------------------------------------------------------------------|
A|-------------------------------------------------------------------------|
E|-------------------------------------------------------------------------|

(Repeat 2 more times the (7h9) p7 is a Trill if u noticed the tr on top,it's
when u hammer on and pull off continuously)

(after repeating twice play this)
Full Full Full Full Full
e|----------------------------------------------------|--------------------|
B|----------------------------------------------------|--------------------|
G|-9b---(9)----9b---9b---9b---9b--------(9)--9p7--7/9-|9~~~~~~~~~~~~~(9)/--|
D|----------------------------------------------------|--------------------|
A|----------------------------------------------------|--------------------|
E|----------------------------------------------------|--------------------|

e|--------------------------------------------|
B|--------------------------------------------|
G|--------------------------------------------|
D|--------------------------------------------|
A|-11/12--12--12\11---11\7---7\5---5/7~~~~~~--|
E|------------------0------0-----0------------|

1/2------ 1/2------ 1/2------
e|-------------------------------------------------|
B|-------------------------------------------------|
G|-------------------------------------------------|
D|-------------------------------------------------|
A|----(6)-----6b-----(6)---6b----(6)---6b~~~-(6)---|
E|---------0----------0-----------0-----------0----|

1/2------ 1/2------- 1/2-------
e|-------------------------------------------------|
B|-------------------------------------------------|
G|-------------------------------------------------|
D|-------------------------------------------------|
A|---------6b-----(6)---6b-----(6)---6b-----(6)----|
E|--0---0----------0------------0------------0-----|

e|----------------------------------------------------------------|
B|----------------------------------------------------------------|
G|---9-------9--9--9-\-7--------7--7--7-/-9------9--9--9-\-7------|
D|---9-------9--9--9-\-7--------7--7--7-/-9------9--9--9-\-7--(7)-|
A|---7-------7--7--7-\-5--------5--5--5-/-7------7--7--7-\-5------|
E|---0--------------------------------0---------------------------|

(Then you go back to the verse and then when u play Verse 2/Interlude
Then you end it with a slide:)

e|--------------|
B|--------------|
G|--------------|
D|--------------|
A|--------------|
E|----12--\--0--|

(The you move into the song Luke's Wall (Outro of War Pig's))
(Luke's Wall)

[Gtr. 1 & 2]
e|-----------------------------------|-------------------------------|
B|-----------------------------------|-------------------------------|
G|-----------7-------------7-------7-|-----------7------------7----7-|
D|-----9------------9----------9-----|----9------------9----9----9---|
A|--7-----7------7------7------------|-7--7---7-----7--7-------------|
E|--------0------0------0------------|----0---0-----0-----0----------|

e|---------------------------------|---------------------------------|
B|---------------------------------|---------------------------------|
G|-9------------7------7---7---7---|-------------7------7--------7---|
D|-9-----9------7------7---7---7---|-----9-------x----------9--------|
A|-7-----9------5------5---5---5---|--7--7---7---7---7---------------|
E|-------7-------------------------|-----0---0-----------------------|

e|---------------------------------|---------------------------------|
B|---------------------------------|---------------------------------|
G|--9------12------9-----9---9-----|------------7------------7-----7-|
D|--9------12------9-----9---9-----|------9------------9--------9----|
A|--7------10------7-----7---7--7--|--7------7------7--7-------------|
E|---------------------------------|-------------------0---0---------|

e|---------------------------------|---------------------------------|
B|---------------------------------|---------------------------------|
G|--9-------------7-----7---7------|-----------7-------------7-----7-|
D|--9------7------7-----7---7------|----9-------------9---------9----|
A|--7------7------5-----5---5--5/6-|-7------7------7--7--------------|
E|---------5-----------------------|------------------0---0----------|

e|---------------------------------|---------------------------------|
B|---------------------------------|---------------------------------|
G|--9----12-----9-------9---9------|----------7-------------7-----7--|
D|--9----12-----9-------9---9------|----9------------9---------9-----|
A|--7----10-----7-------7---7---7--|-7--7---7-----7--7----7----7-----|
E|---------------------------------|----0---------0--0----0----------|

e|---------------------------------|---------------------------------|
B|---------------------------------|---------------------------------|
G|-----------7------------7------7-|-----------7-----------7------7--|
D|----9------------9---------9-----|----9-----------9----------9-----|
A|-7--7---7------7-7----7----7-----|-7--7----7----7-7---7------7-----|
E|----0----------0-0----0----------|----0---------0-0---0------------|

e|----------------------------|--------------------------|
B|----------------------------|--------------------------|
G|--------7----------7------7-|--------5---------5-----5-|
D|---9--------9----------9----|---7--------7--------7----|
A|-7-7--7---7-7---7------7----|-5----5---5----5----------|
E|---0------0-0---0-----------|--------------------------|

e|----------------------------|--------------------------|
B|----------------------------|--------------------------|
G|--------5--------5-------5--|--------3---------3-----3-|
D|---7--------7--------7------|---5--------5--------5----|
A|-5----5---5----5------------|-3----3---3----3----------|
E|----------------------------|--------------------------|

e|-------------------------------------|
B|-------------------------------------|
G|----------3-----------3-------3------|
D|---5------------5---------5----------|
A|-3-----3-----3-----3-----------------|
E|-------------------------------------|

e|----------------------|--------------|---------------------------|
B|----------------------|--------------|---------------------------|
G|----------------------|--------------|---------------------------|
D|--4---------5-----5---|--4-----------|--7-/-9--------4--5----4h5-|
A|--2---------3-----3---|--2-----------|--5-/-7--------------------|
E|----------------------|--------------|--0--------0---------------|

e|------------------------|-------------------------|
B|------------------------|-------------------------|
G|------------------------|-------------------------|
D|--4~~~~~~~~-4-----------|--7-/-9------4----5---7--|
A|---------------5--2--5--|--5-/-7------------------|
E|------------------------|--0-----0--0-------------|

e|--------------------------|---------------------------|
B|--------------------------|---------------------------|
G|--------------------------|---------------------------|
D|-7~~~~~~~-7---4-----------|--7-/-9--------4--5----4h5-|
A|------------------5-------|--5-/-7--------------------|
E|----------------------7---|--0--------0---------------|

e|------------------------|-------------------------|
B|------------------------|-------------------------|
G|------------------------|-------------------------|
D|--4~~~~~~~~-4-----------|--7-/-9------4----5---7--|
A|---------------5--2--5--|--5-/-7------------------|
E|------------------------|--0-----0--0-------------|

Full Full Full---
e|------------------------|--------------------------------------|
B|------------------------|--------------------------------------|
G|---------4-4-------4/7--|-7h9---9~~7---9b--9b--9b---(9)---7h9--|
D|-7----------------------|--------------------------------------|
A|------------------------|--------------------------------------|
E|------------------------|--------------------------------------|

Full--- tr~~~~~~~ Full--- tr~~~~~~ Full--- tr~~~~~
e|---------------------------------------------------------------------|
B|---------------------------------------------------------------------|
G|-(9)~~~7----7--9--9b--(9)(7h9)-p7--9b--(9)(7h9)-p7--9b--(9)(7h9)-p7--|
D|---------9-----------------------------------------------------------|
A|---------------------------------------------------------------------|
E|---------------------------------------------------------------------|

Full--- tr~~~~~~~Full--- tr~~~~~~~Full--- tr~~~~~~~Full---tr~~~~~~
e|---------------------------------------------------------------------|
B|---------------------------------------------------------------------|
G|-9b--(9)(7h9)-p7--9b--(9)(7h9)-p7--9b--(9)(7h9)-p7--9b--(9)(7h9)-p7--|
D|---------------------------------------------------------------------|
A|---------------------------------------------------------------------|
E|---------------------------------------------------------------------|

[Gtr.1]
Full Full Full Full
e|---------------------------------------------------------------------|
B|---------------------------------------------------------------------|
G|------9b-----9b------9b------9b---------(9)---7------7---/---9~~~~---|
D|--------------------------------------------------9------------------|
A|---------------------------------------------------------------------|
E|---------------------------------------------------------------------|

[Gtr.2]
Full--- tr~~~~~~~Full--- tr~~~~~~~Full Full
e|---------------------------------------------------------------------|
B|---------------------------------------------------------------------|
G|-9b--(9)(7h9)-p7--9b--(9)(7h9)-p7--9b--(9)-p-7-h9--9b--(9)p7--9---7--|
D|---------------------------------------------------------------------|
A|---------------------------------------------------------------------|
E|---------------------------------------------------------------------|

[Gtr.1]
e|--------------------------------------------------|
B|--------------------------------------------------|
G|-(9)--\-7-/-9~~~~~~~-------7-h9----------7-h9~~~~-|
D|---------------------7-h9----------7-h9-----------|
A|--------------------------------------------------|
E|--------------------------------------------------|

[Gtr.2]
e|--------------------------------------------------|
B|--------------------------------------------------|
G|--7-/-9-~~~~~~~~~~~~~~~~~--7h9~~~~~--7h9---9--9~~~|
D|--------------------------------------------------|
A|--------------------------------------------------|
E|--------------------------------------------------|

e|---------------------------------------|
B|---------------------------------------|
G|---(9)~~--------7h9~~~-----7h9~~~~-----|
D|-----------7h9--------7h9---------9p7--|
A|---------------------------------------|
E|---------------------------------------|

e|---------------------------------------|
B|---------------------------------------|
G|---(9)~~-------7h9~~~-----7h9~~~~------|
D|----------7h9--------7h9----------7--9-|
A|---------------------------------------|
E|---------------------------------------|

e|--------------------------------------------------|
B|--------------------------------------------------|
G|--------------------------------------------------|
D|--9-p-7\-5--7--5\4--5-4h5p4---4h5p4-----4h5p4-----|
A|----------------------------7--------7---------7--|
E|--------------------------------------------------|

Full
e|--------------------------------------------------|
B|--------------------------------------------------|
G|-9b--(9)p7-h9p7-----------------------------------|
D|----------------9-7--7-\5---5\4---4h5p4----4h5p--4|
A|---------------------------------7-------7--------|
E|--------------------------------------------------|

e|-------------------------------------------------|
B|-------------------------------------------------|
G|-------------------------------------------------|
D|-4--5-7-----4h5p4----4h5p4---X-------------------|
A|------------------7--------7----7--5-------5-----|
E|-------------------------------------------------|

e|-------------------------------------------------|
B|-------------------------------------------------|
G|-------------------------------------------------|
D|----4h5p4------4h5p4-------4h5--7-----4h5p4------|
A|-7-----------7-----------7-------------------7---|
E|-------------------------------------------------|

e|---------------------------|------------------------|
B|---------------------------|------------------------|
G|---------------------------|------------------------|
D|--7-/-9--------4--5----4h5-|--4~~~~~~~~-4-----------|
A|--5-/-7--------------------|---------------5--2--5--|
E|--0--------0---------------|------------------------|

e|-------------------------|--------------------------|
B|-------------------------|--------------------------|
G|-------------------------|--------------------------|
D|--7-/-9------4----5---7--|-7~~~~~~~-7---4-----------|
A|--5-/-7------------------|------------------5-------|
E|--0-----0--0-------------|----------------------7---|

e|---------------------------|------------------------|
B|---------------------------|------------------------|
G|---------------------------|------------------------|
D|--7-/-9--------4--5----4h5-|--4~~~~~~~~-4-----------|
A|--5-/-7--------------------|---------------5--2--5--|
E|--0--------0---------------|------------------------|

e|-------------------------|-----------------------------|
B|-------------------------|-----------------------------|
G|-------------------------|-----------------------------|
D|--7-/-9------4----5---7--|-7~~~~~~~-7---4--------------|
A|--5-/-7------------------|------------------5--(5)/----|
E|--0-----0--0-------------|--------------------------0--|

e|-----------------------------------|-------------------------------|
B|-----------------------------------|-------------------------------|
G|-----------7-------------7-------7-|-----------7------------7----7-|
D|-----9------------9----------9-----|----9------------9----9----9---|
A|--7-----7------7------7------------|-7--7---7-----7--7-------------|
E|--------0------0------0------------|----0---0-----0-----0----------|

e|-----------------------------------|-------------------------------|
B|**---------------------------------|-------------------------------|
G|-----------7-------------7-------7-|-----------7------------7----7-|
D|-----9------------9----------9-----|----9------------9----9----9---|
A|--7-----7------7------7------------|-7--7---7-----7--7-------------|
E|--------0------0------0------------|----0---0-----0-----0----------|

(**Tape Speed's up;Last Chord sounds 10 1/2 steps higher)

e|---------------|
B|---------------|
G|--9\-----------|
D|--9\\----------|
A|--7\\\---------|
E|--0\\\\--------|

************************************

| / Slide up
| \ Slide down
| ~ Vibrato
| h Hammer-on
| b Bend
| p Pull-off
| (n) Ghost note
| x Dead note

************************************
Tunning: Standard (E A D G B e)
WAR PIGS
As recorded by Black Sabbath
(From the 1970 Album PARANOID)

Words and Music by Frank Iommi, John Osbourne, William Ward, Terence Butler
Arranged by Jake Brown
Transcribed by Jake Brown

E5 D5 G5 F#5
12 14 x x x x 10 12 x x x x 15 17 x x x x 14 16 x x x x

F5 Em E7(type 3) B5
13 15 x x x x x x x 12 12 12 12 14 12 x x x 7 9 x x x x

D7(type 3) C7(type 3) C5
10 12 10 x x x 1 3 1 x x x 8 10 x x x x

Gtr I (E A D G B E) - 'Gtr.1'
Gtr II (E A D G B E) - 'Gtr.2'
Gtr III (E A D G B E) - 'Gtr.3'


[Intro]

Q=56
E5 D5 E5
12/8
Gtrs I, II
~~~~~~~~~~~~~~~~~~~~~~~~~~
a Q. +H. +E S E. S E. +E +Q +E +Q. +E E S S
e|--------------------------------|---------------------------------------------|
B|--------------------------------|---------------------------------------------|
G|--------------------------------|---------------------------------------------|
D|--------------------------------|---------------------------------------------|
A|-12h14----(14)------(14)-12s14--|------------------------------------11-11h12-|
E|-12-12----(12)------(12)-10s12--|-12s10--(10)-(10)--(10)-(10)---(10)--0--0----|


E
Q. +Q +E +Q. +E a Q
e|-------------------------------------|
B|-------------------------------------|
G|-------------------------------------|
D|-------------------------------------|
A|-11----(11)--(11)-(11)---(11)-12s14--|
E|--0-----(0)---(0)--(0)----(0)-10s12--|


D5 E5
~~~~~~~~~~~~~~~~~~~~~
S E. +E +Q +E +Q. +E E S S
e|---------------------------------------------|
B|---------------------------------------------|
G|---------------------------------------------|
D|---------------------------------------------|
A|------------------------------------11-11h12-|
E|-12s10--(10)-(10)--(10)-(10)---(10)--0--0----|


E5 D5 E5
~~~~~~~~
|3-|
H. +Q. +E a Q S E. +E +H. E E E S
e|------------------------------|-----------------------------------|
B|------------------------------|-----------------------------------|
G|------------------------------|-----------------------------------|
D|------------------------------|-----------------------------------|
A|-/14-------(14)---(14)-12s14--|-----------------------12-14-14-14-|
E|---0--------(0)----(0)-10s12--|-12s10--(10)-(10)------10-12-12-12-|


E5 D5
|-3-| |3-|
a Q. +Q +E S S E. +E +E +E E S
e|----------------------------------------------------|
B|----------------------------------------------------|
G|----------------------------------------------------|
D|----------------------------------------------------|
A|-12h14----(14)--(14)-14-14s12--(12)-(12)-(12)-12-12-|
E|-12-12----(12)--(12)-12-12s10--(10)-(10)-(10)-10-10-|


E5 D5
|3-|
S E. +E +Q E S S E. +E +Q +E
e|------------------------------------------------||
B|------------------------------------------------||
G|------------------------------------------------||
D|------------------------------------------------||
A|-12s14--(14)-(14)--14-14-14s12--(12)-(12)--(12)-||
E|-10s12--(12)-(12)--12-12-12s10--(10)-(10)--(10)-||


Q=88
$
D5 E5 D5 E5
4/4
S S E Q H W S S E Q H W
e|-----------------|----------|-----------------|------||
B|-----------------|----------|-----------------|------||
G|-----------------|----------|-----------------|------||
D|-----------------|----------|-----------------|------||
A|-12-14-----------|----------|-12-14-----------|------||
E|-10-12-----------|----------|-10-12-----------|------||


[Verse]

D5 E5 D5 E5
S S E Q H W S S E Q H W
e||------------------|----------|-----------------|-------||
B||o-----------------|----------|-----------------|------o||
G||------------------|----------|-----------------|-------||
D||------------------|----------|-----------------|-------||
A||o-12-14-----------|----------|-12-14-----------|------o||
E||--10-12-----------|----------|-10-12-----------|-------||


D5 E5
|-3-|
S S E Q H H Q S S S S S
e|-----------------|---------------------|
B|-----------------|---------------------|
G|-----------------|---------4p2p0-------|
D|-----------------|---------------2p(0)-|
A|-12-14-----------|---------------------|
E|-10-12-----------|---------------------|


D5 E5
S E +S Q H H Q. E
e|---------------------|------------------|
B|---------------------|------------------|
G|---------------------|-------------/11--|
D|---------------------|------0tr2---/12--|
A|-12-14-(14)\---------|------------------|
E|-10-12-(12)\---------|------------------|


D5 E5 Em D5 E5
S E +S Q H H Q E +E S E +S Q H W
e|---------------------|---------12-(12)\-|---------------------|------||
B|---------------------|---------12-(12)\-|---------------------|------||
G|-11------------------|---------12-(12)\-|---------------------|------||
D|-12------------------|------------------|---------------------|------||
A|-12-14-(14)\---------|------------------|-12-14-(14)\---------|------||
E|-10-12-(12)\---------|------------------|-10-12-(12)\---------|------||


[Interlude]

D5 E5 G5 F#5 F5 E5 Em
~~~
S E +S Q Q e e H Q E. +S
e|-------------------------|---------------------|
B|-------------------------|---------------------|
G|-------------------------|-----------12--(12)\-|
D|-------------------------|---------------------|
A|-12-14-(14)\-------17-16-|-15----14------------|
E|-10-12-(12)\-------15-14-|-13----12------------|


D5 E5 G5 F#5 F5 E5
S E +S Q Q e e H Q Q
e|-------------------------|---------------------|
B|-------------------------|---------------------|
G|-------------------------|---------------------|
D|-------------------------|-----------12tr14----|
A|-12-14-(14)\-------17-16-|-15----14------------|
E|-10-12-(12)\-------15-14-|-13----12------------|


D5 E5 G5 F#5 F5 E5 Em
~~~
S E +S E E Q e e H Q E. +S
e|-------------------------|---------------------|
B|-------------------------|---------------------|
G|-------------------------|-----------12--(12)\-|
D|-------------------------|---------------------|
A|-12-14-(14)\-------17-16-|-15----14------------|
E|-10-12-(12)s3------15-14-|-13----12------------|


To Coda
D5 E5 G5 F#5 F5 E5
S E +S Q Q e e H Q E +E
e|-------------------------|----------------------||
B|-------------------------|----------------------||
G|-------------------------|----------------------||
D|-------------------------|----------------------||
A|-12-14-(14)\-------17-16-|-15----14--14-(14)\---||
E|-10-12-(12)\-------15-14-|-13----12--12-(12)\---||


Em
PM----| PM--| ~ PM----| PM--| ~
S S S S E +E S S S S Q S S S S E +E S S S S Q
e|---------12-(12)\------------|---------12-(12)\------------|
B|---------12-(12)\------------|---------12-(12)\------------|
G|---------12-(12)\------------|---------12-(12)\------------|
D|-----------------------------|-----------------------------|
A|-----------------------------|-----------------------------|
E|-0-0-0-0------------0---0-3--|-0-0-0-0------------0---0-3--|


PM----| PM--| ~ PM----| PM--| ~
S S S S E +E S S S S Q S S S S E +E S S S S Q
e||---------12-(12)\------------|---------12-(12)\--------------||
B||---------12-(12)\------------|---------12-(12)\--------------||
G||---------12-(12)\------------|---------12-(12)\--------------||
D||-----------------------------|-------------------------------||
A||-----------------------------|-------------------------------||
E||-0-0-0-0------------0---0-3--|-0-0-0-0------------0---0-3----||


[Verse]

Em
Gtr I
PM----| PM------| PM----| PM------|
S S S S S S S S S S S S S S S +S S S S S S S S S S S S S S S S +S
e||------------------------------------------|------------------------------------------|
B||------------------------------------------|------------------------------------------|
G||------------------------------------------|------------------------------------------|
D||----------2p0-----------------2p0---------|----------2p0-----------------2p0---------|
A||------------------------------------------|------------------------------------------|
E||-0-0-0-0------------0---0---0-----2b3r(2)-|-0-0-0-0------------0---0---0-----2b3r(2)-|
|
| Gtr II
| PM----| PM--| ~~ PM----| PM--| ~~
| S S S S E +E S S S S Q S S S S E +E S S S S Q
e|---------12---(12)\-----------------------|---------12---(12)\-----------------------|
B|---------12---(12)\-----------------------|---------12---(12)\-----------------------|
G|---------12---(12)\-----------------------|---------12---(12)\-----------------------|
D|------------------------------------------|------------------------------------------|
A|------------------------------------------|------------------------------------------|
E|-0-0-0-0----------------0---0-3-----------|-0-0-0-0----------------0---0-3-----------|


PM----| PM------| PM----| PM------|
S S S S S S S S S S S S S S S +S S S S S S S S S S S S S S S S +S
e|------------------------------------------|---------------------------------------------|
B|------------------------------------------|---------------------------------------------|
G|------------------------------------------|---------------------------------------------|
D|----------2p0-----------------2p0---------|----------2p0-----------------2p0------------|
A|------------------------------------------|---------------------------------------------|
E|-0-0-0-0------------0---0---0-----2b3r(2)-|-0-0-0-0------------0---0---0-----2b3r(2)----|
|
| PM----| PM--| ~~ PM----| PM--| ~~
| S S S S E +E S S S S Q S S S S E +E S S S S Q
e|---------12---(12)\-----------------------|---------12---(12)\--------------------------|
B|---------12---(12)\-----------------------|---------12---(12)\--------------------------|
G|---------12---(12)\-----------------------|---------12---(12)\--------------------------|
D|------------------------------------------|---------------------------------------------|
A|------------------------------------------|---------------------------------------------|
E|-0-0-0-0----------------0---0-3-----------|-0-0-0-0----------------0---0-3--------------|


Em
Gtrs I, II
PM----| PM------| PM----| PM------|
S S S S S S S S S S S S S S S +S S S S S S S S S S S S S S S S +S
e|-------------------------------------|-------------------------------------|
B|-------------------------------------|-------------------------------------|
G|-------------------------------------|-------------------------------------|
D|---------2p0-------------2p0---------|---------2p0-------------2p0---------|
A|-------------------------------------|-------------------------------------|
E|-0-0-0-0-------0---0---0-----2b3r(2)-|-0-0-0-0-------0---0---0-----2b3r(2)-|


PM----| PM------| PM----| PM------|
S S S S S S S S S S S S S S S +S S S S S S S S S S S S S S S S +S
e||-------------------------------------|----------------------------------------|
B||-------------------------------------|----------------------------------------|
G||-------------------------------------|----------------------------------------|
D||---------2p0-------------2p0---------|---------2p0-------------2p0------------|
A||-------------------------------------|----------------------------------------|
E||-0-0-0-0-------0---0---0-----2b3r(2)-|-0-0-0-0-------0---0---0-----2b3r(2)----|


[Interlude]

Em
PM----| PM--| ~ PM----| PM--| ~
S S S S E +E S S S S Q S S S S E +E S S S S Q
e||---------12-(12)\------------|---------12-(12)\------------|
B||---------12-(12)\------------|---------12-(12)\------------|
G||---------12-(12)\------------|---------12-(12)\------------|
D||-----------------------------|-----------------------------|
A||-----------------------------|-----------------------------|
E||-0-0-0-0------------0---0-3--|-0-0-0-0------------0---0-3--|


PM----| PM--| ~ PM----| PM--| ~
S S S S E +E S S S S Q S S S S E +E S S S S Q
e||---------12-(12)\------------|---------12-(12)\--------------||
B||---------12-(12)\------------|---------12-(12)\--------------||
G||---------12-(12)\------------|---------12-(12)\--------------||
D||-----------------------------|-------------------------------||
A||-----------------------------|-------------------------------||
E||-0-0-0-0------------0---0-3--|-0-0-0-0------------0---0-3----||


[Verse]

Em
PM----| PM------| PM----| PM------|
S S S S S S S S S S S S S S S +S S S S S S S S S S S S S S S S +S
e|||--------------------------------------|-------------------------------------|
B|||o-------------------------------------|-------------------------------------|
G|||--------------------------------------|-------------------------------------|
D|||----------2p0-------------2p0---------|---------2p0-------------2p0---------|
A|||o-------------------------------------|-------------------------------------|
E|||--0-0-0-0-------0---0---0-----2b3r(2)-|-0-0-0-0-------0---0---0-----2b3r(2)-|


PM----| PM------| PM----| PM------|
S S S S S S S S S S S S S S S +S S S S S S S S S S S S S S S S +S
e||-------------------------------------|-----------------------------------------||
B||-------------------------------------|----------------------------------------o||
G||-------------------------------------|-----------------------------------------||
D||---------2p0-------------2p0---------|---------2p0-------------2p0-------------||
A||-------------------------------------|----------------------------------------o||
E||-0-0-0-0-------0---0---0-----2b3r(2)-|-0-0-0-0-------0---0---0-----2b3r(2)-----||


[Interlude]

D5 E5 G5 F#5 F5 E5 Em
~~~
S E +S Q Q e e H Q E. +S
e|-------------------------|---------------------|
B|-------------------------|---------------------|
G|-------------------------|-----------12--(12)\-|
D|-------------------------|---------------------|
A|-12-14-(14)\-------17-16-|-15----14------------|
E|-10-12-(12)\-------15-14-|-13----12------------|


D5 D5 G5 F#5 F5 E5
S E +S Q Q e e H Q Q
e|-------------------------|---------------------|
B|-------------------------|---------------------|
G|-------------------------|---------------------|
D|-------------------------|-----------12tr14----|
A|-12-14-(14)\-------17-16-|-15----14------------|
E|-10-12-(12)\-------15-14-|-13----12------------|


D5 E5 G5 F#5 F5 E5 Em
~~~
S E +S E E Q e e H Q E. +S
e|-------------------------|---------------------|
B|-------------------------|---------------------|
G|-------------------------|-----------12--(12)\-|
D|-12-14-(14)\-------17-16-|-15----14------------|
A|-12-14-(14)\-------17-16-|-15----14------------|
E|-10-12-(12)s3------15-14-|-13----12------------|


D5 E5 G5 F#5 F5 E5
S E +S Q Q e e H Q Q
e|-------------------------|------------------||
B|-------------------------|------------------||
G|-------------------------|------------------||
D|-12-14-(14)\-------17-16-|-15----14---------||
A|-12-14-(14)\-------17-16-|-15----14---------||
E|-10-12-(12)\-------15-14-|-13----12--12\----||


[Guitar Solo]

E
~~~~~~~~
S S S S S S S S S S S S S S E +Q S S S S S S S S S S S S
e|------------------------------------|----------------------------------|
B|------------------------------------|----------------------------------|
G|------------------------------------|----------------------------------|
D|------------------------------------|----------------------------------|
A|-11s12---12s11---11s7---7s5---5s7-7-|-(7)--7s5---5s7-7-7s11---11s12----|
E|-------0-------0------0-----0-------|----------0------------0-------0--|


S S S S S S S S Q S S S S
e|---------------------------------------||
B|---------------------------------------||
G|---------------------------------------||
D|---------------------------------12h14-||
A|-12s11---11s12---12s14-14--12h14-------||
E|-------0-------0-----------------------||

Em
~~
|---3----|
E S S S S E S S S S E S S S
e||------------------------------------------------12---|
B||---------------------------------------------12------|
G||----------------12b12.5-------------12-14b15---------|
D||-14-------12h14---------------12h14------------------|
A||----12h14---------------12h14------------------------|
E||-----------------------------------------------------|


Gtr I
~~~~~~~~~~
|---3----| |---3----|
S S S S S S E E +E S S S S S T T
e||----------12----------12------------------12-------------------------|
B||-------12----------12----15b17-15b17-(15)----15-12-------12----15p12-|
G||-14b15-------14b15---------------------------------14b16-------------|
D||---------------------------------------------------------------------|
A||---------------------------------------------------------------------|
E||---------------------------------------------------------------------|
|
| Gtr II
| ~~~~~~~~~~
| |---3----| |---3----|
| S S S S S S E E +E S S S S T T T T
e||----------12----------12------------------12-------------12----------|
B||-------12----------12----15b17-15b17-(15)----15-12-15b16----15-15p12-|
G||-14b15-------14b15---------------------------------------------------|
D||---------------------------------------------------------------------|
A||---------------------------------------------------------------------|
E||---------------------------------------------------------------------|
|
| Gtr III
| W
e|---------------------------------------------------------------------|
B|---------------------------------------------------------------------|
G|---------------------------------------------------------------------|
D|---------------------------------------------------------------------|
A|---------------------------------------------------------------------|
E|---------------------------------------------------------------------|


|--3---|
S S T T S S T T S S S S T T T S S S T T S
e||----------------------------------------------------------------------------------------------|
B||-------12-15p12----------15p12----------------------------------------------------------------|
G||-14----14-------14----14-------14p===12-14b16----14-----12h=14p12----12-----------------------|
D||------------------------------------------------------------------14-------14-14p12-----------|
A||------------------------------------------------------------------------------------14--------|
E||----------------------------------------------------------------------------------------------|
|
| ~~~~~
| T T S S T T S S T T S S S +S S E S S
e|------------------------------------------------------------------12----------15----15pb17----|
B|-15p12----12----15p12----12----15p12----12---------------------------15b17--------------------|
G|-------14-------------14-------------14----------14b16-(14)-----------------------------------|
D|----------------------------------------------------------------------------------------------|
A|----------------------------------------------------------------------------------------------|
E|----------------------------------------------------------------------------------------------|
|
| T T S T T S S T T S S T T S +S S E S S
e|------------------------------------------------------------------12----------15----15pb17----|
B|-15p12----15p12-------12-15p12-------12-15p===12----------------------------------------------|
G|-------14-------14-------------14----------------14b16-(14)-----------------------------------|
D|----------------------------------------------------------------------------------------------|
A|----------------------------------------------------------------------------------------------|
E|----------------------------------------------------------------------------------------------|


E T T S S S E +S S S S S S T T S
e|---------------------------------------------------------------12----------|
B|---------------------------------------------------------12-------15p12----|
G|------------------------------------------------12-14b15----------------14-|
D|-12----------------------------12----(12)s14-------------------------------|
A|--------14s===12-10-12s====14----------------------------------------------|
E|---------------------------------------------------------------------------|
|
| E E S +S S S S S S S T T S T T S
e|-15b17--15b17-------15b17r(15)-12-10---------------------------------------|
B|--------------------------------------12--------12-15----15p12-------------|
G|------------------------------------------14b16----------------15-14p12----|
D|------------------------------------------------------------------------14-|
A|---------------------------------------------------------------------------|
E|---------------------------------------------------------------------------|
|
| ~~~~~~
| E +S S E S S S S S S T T S T T S
e|-15b17r(15)------12------------12------------------------------------------|
B|--------------------15b17---------15--12--------12-------15p12-------------|
G|------------------------------------------14b16-12-------------14-14p12----|
D|---------------------------------------------------14-------------------14-|
A|---------------------------------------------------------------------------|
E|---------------------------------------------------------------------------|

E
~~~~~~~~~~
S +S S S S S E +E E E E W
e|-----------------------------------------------------------------------------||----------------|
B|-----------------------------------------------------------------------------||----------------|
G|-12----(12)b13---------------------------------------------------------------||----------------|
D|---------------14p==========12-12h====14--14----(14)-------------------------||----------------|
A|-----------------------------------------------------------------------------||----------------|
E|-------------------------------------------------------------------------12\-||--0-------------|
|
| T T S +T T S E S S +S S E S S E S E. +H.
e|-----------------------------------------------------------------------------||----------------|
B|-15p12-----------------------------------------------------------------------||----------------|
G|--------14b15r(14)pb16r=14p=12-12--------------------------------------------||----------------|
D|------------------------------------------14p12-(12)-14----------------------||-12h14--(14)----|
A|------------------------------------------------------------14\----10h12-10--||----------------|
E|-----------------------------------------------------------------------------||----------------|
|
| S S T +T S S +S S S S S +S S E E W
e|------------------------------------------12---------------------------------||----------------|
B|-------------------------------15b17-(15)----15--12--------------------------||----------------|
G|-12-----14-----14b15r==(14)p12-----------------------14b16r(14)p12-14----12--||----------------|
D|-----------------------------------------------------------------------------||----------------|
A|-----------------------------------------------------------------------------||----------------|
E|-----------------------------------------------------------------------------||----------------|

E
Gtrs I, II
~~~~~~~~~~ ~~ ~~~~~~
E E E E +S +S S S S E. +S S S S S E. S S S S +E S S
e|------------------------------------------|--------------------------------|
B|------------------------------------------|--------------------------------|
G|-9b11-9b11-9b11-9b11-(9)pb11r(9)-7---7s9--|-(9)s7-----7h9------7h9-(9)-7-9-|
D|-----------------------------------9------|-------7h9------7h9-------------|
A|------------------------------------------|--------------------------------|
E|------------------------------------------|--------------------------------|

T +T E T +T E T +T S S T +T E T +T E T +T
e|---------------------------------------------------------------------------------------|
B|---------------------------------------------------------------------------------------|
G|-9b11r(9)-7tr9-9b11r(9)-7tr9-9b11r(9)-7tr9-7tr9-9b11r(9)-7tr9-9b11r(9)-7tr9-9b11r(9)---|
D|---------------------------------------------------------------------------------------|
A|---------------------------------------------------------------------------------------|
E|---------------------------------------------------------------------------------------|

E
E T +T S S T +T E T +T E T +T E S +S
e|----------------------------------------------------------------------------|
B|----------------------------------------------------------------------------|
G|-7tr9-9b11r(9)-7tr9-7tr9-9b11r(9)p7tr9-9b11r(9)p7tr9-9b11r(9)p7tr9-9b11r(9)-|
D|----------------------------------------------------------------------------|
A|----------------------------------------------------------------------------|
E|----------------------------------------------------------------------------|

~~
E E E E +S +S S S S E.
e|------------------------------------------|
B|------------------------------------------|
G|-9b12-9b12-9b12-9b12-(9)pb12r(9)-9p7-7s9--|
D|------------------------------------------|
A|------------------------------------------|
E|------------------------------------------|


e|-------|---------------------------------|----------------------------------------------------------------|
B|-------|---------------------------------|----------------------------------------------------------------|
G|(9)(9)/|---------------------------------|----------------------------------------------------------------|
D|-------|---------------------------------|----------------------------------------------------------------|
A|-------|11s12-12-12s11---11s7--7s5---5s7-|(6)--6b7-(6)pb7r(6)-6b7-(6)pb7r(6)-6b7-(6)pb7r(6)-6b7-(6)pb7r(6)|
E|-------|---------------0-----0-----0-----|----0------------0--------------0--------------0----------------|


S S S +S S S +S S S +S S S +S +S S S
e|-----------------------------------------------------------------------||
B|-----------------------------------------------------------------------||
G|-----------------------------------------------------------------------||
D|-----------------------------------------------------------------------||
A|-----6b7-(6)pb7r(6)-6b7-(6)pb7r(6)-6b7-(6)pb7r(6)-6b7-(6)pb7r(6)-------||
E|-0-0-------------0--------------0--------------0-----------------0-----||


[Interlude]

E5 E5 D5
H. +S E S S E. +H +S S S S
e|---------------------|------------------------------|
B|---------------------|------------------------------|
G|---------------------|------------------------------|
D|---------------------|------------------------------|
A|-14-------(14)-14-14-|-14s12--(12)----(12)-12-12-12-|
E|-12-------(12)-12-12-|-12s10--(10)----(10)-10-10-10-|

D.S. al Coda
D5 E5 E5 D5
S E. +H +S E +S S E. +E +E +H
e|-----------------------------|---------------------------||
B|-----------------------------|---------------------------||
G|-----------------------------|---------------------------||
D|-----------------------------|---------------------------||
A|-12s14--(14)----(14)-14-(14)-|-14s12--(12)-(12)-(12)-----||
E|-10s12--(12)----(12)-12-(12)-|-12s10--(10)-(10)-(10)-----||


[Interlude]

&
E7(type 3)
S E S E S S +S S E E E
e|------------------------------------|
B|------------------------------------|
G|------------------------------------|
D|----------12---------------12----12-|
A|----14----------14-(14)-------14----|
E|-12----12----12---------12----------|

E5 B5 D5
S E S E S S +S S E E e E S S E E +E E E E
e|------------------------------------|-----------------------------|
B|------------------------------------|-----------------------------|
G|------------------------------------|-----------------------------|
D|----------12---------------12----12-|-----------------------------|
A|----14----------14-(14)-------14----|-14---9---12-(12)-12-12-12/--|
E|-12----12----12---------12----------|-12---7---10-(10)-10-10-10/--|

E7(type 3) E5 G5 E5
S E S E S S +S S E E e E S S E E +E E E E
e|------------------------------------|----------------------------|
B|------------------------------------|----------------------------|
G|------------------------------------|----------------------------|
D|----------12---------------12----12-|----------------------------|
A|----14----------14-(14)-------14----|-14---17---14-(14)-14-14----|
E|-12----12----12---------12----------|-12---15---12-(12)-12-12-12-|

E7(type 3) E5 B5 D5
S E S E S S +S S E E e E S S E E +E E E E
e|------------------------------------|-----------------------------|
B|------------------------------------|-----------------------------|
G|------------------------------------|-----------------------------|
D|----------12---------------12----12-|-----------------------------|
A|----14----------14-(14)-------14----|-14---9---12-(12)-12-12------|
E|-12----12----12---------12----------|-12---7---10-(10)-10-10-10---|

E7(type 3)
S E S E S S +S S E E e
e|------------------------------------|
B|------------------------------------|
G|------------------------------------|
D|----------12---------------12----12-|
A|----14----------14-(14)-------14----|
E|-12----12----12---------12----------|

E5 G5 E5 E7(type 3)
E S S E E +E E E E S E S E S S +S S E E E
e|----------------------------|-------------------------------------|
B|----------------------------|-------------------------------------|
G|----------------------------|-------------------------------------|
D|----------------------------|----------12---------------12----12--|
A|-14---17---14-(14)-14-14----|----14----------14-(14)-------14-----|
E|-12---15---12-(12)-12-12-12-|-12----12----12---------12-----------|

S E S E S S +S S E E E
e|------------------------------------|
B|------------------------------------|
G|------------------------------------|
D|----------12---------------12----12-|
A|----14----------14-(14)-------14----|
E|-12----12----12---------12----------|

S E S E S S +S S E E E S E S E S S +S S E E E
e|------------------------------------|-------------------------------------|
B|------------------------------------|-------------------------------------|
G|------------------------------------|-------------------------------------|
D|----------12---------------12----12-|----------12---------------12----12--|
A|----14----------14-(14)-------14----|----14----------14-(14)-------14-----|
E|-12----12----12---------12----------|-12----12----12---------12-----------|

D7(type 3)
S E S E S S +S S E E E S E S E S S +S S E E E
e|------------------------------------|------------------------------------|
B|------------------------------------|------------------------------------|
G|------------------------------------|------------------------------------|
D|----------10---------------10----10-|----------10---------------10----10-|
A|----12----------12-(12)-------12----|----12----------12-(12)-------12----|
E|-10----10----10---------10----------|-10----10----10---------10----------|

C7(type 3) B5 C5 B5
S E S E S S +S S E E E S E S E S S +S S E E E H +E E E E W
e|-----------------------------|-----------------------------|------------------|------||
B|-----------------------------|-----------------------------|------------------|------||
G|-----------------------------|-----------------------------|------------------|------||
D|--------8-------------8----8-|--------8-------------8----8-|------------------|------||
A|---10-------10-(10)-----10---|---10-------10-(10)-----10---|-9----(9)-10---10-|-9----||
E|-8----8---8---------8--------|-8----8---8---------8--------|-7----(7)--8----8-|-7----||


[Outro]

Em D Em D
~~ ~~
S E. +E E Q E S S Q. E Q E E E Q S S Q E. S Q. E Q E E
e|----------------------|---------------|--------------------|-----------------|
B|----------------------|---------------|--------------------|-----------------|
G|----------------------|---------------|--------------------|-----------------|
D|-------------4--5-4h5-|-4----4--------|------------4--5--7-|-7----7-4--------|
A|-5h=7--(7)------------|--------5----5-|-5s=7---------------|-----------5-----|
E|-0-(0)-(0)-0----------|-----------7---|-0-(0)--0-0---------|-------------7---|

Em D
~~
S E. +E S S Q E S S Q. E Q E E
e|------------------------|---------------|
B|------------------------|---------------|
G|------------------------|---------------|
D|---------------4--5-4h5-|-4----4--------|
A|-5h=7--(7)--------------|--------5----5-|
E|-0-(0)-(0)-0-0----------|-----------7---|

Em D
~~~ ~~
S E. +E E Q E. S Q.. S Q. S S
e|---------------------|-------------------|
B|---------------------|-------------------|
G|---------------------|-------4-4----4s7--|
D|-------------4--5--7-|-7-----------------|
A|-5s=7--(7)-----------|-------------------|
E|-0-(0)-(0)-0---------|-------------------|

Em D
~~ ~~~
E E E. S E E S +E T T +Q S S S S T +T E T +T E T +T S
e|---------------------------------|--------------------------------------------------------|
B|---------------------------------|--------------------------------------------------------|
G|-7h9-9--7-9b11-9b11-9b11r(9)-7-9-|-(9)--7---7-9-9b11r(9)p7tr9-9b11r(9)p7tr9-9b11r(9)p7tr9-|
D|---------------------------------|--------9-----------------------------------------------|
A|---------------------------------|--------------------------------------------------------|
E|---------------------------------|--------------------------------------------------------|

Em
+E T +T S T +T E T +T E T +T S +S T +T E
e|----------------------------------------------------------------------------------------|
B|----------------------------------------------------------------------------------------|
G|-(7tr9)-9b11r(9)p7tr9-9b11r(9)p7tr9-9b11r(9)p7tr9-9b11r(9)p7tr9-(7tr9)-9b11r(9)p7tr9----|
D|----------------------------------------------------------------------------------------|
A|----------------------------------------------------------------------------------------|
E|----------------------------------------------------------------------------------------|

D Em
Gtr I
~~~~~~~~~~~ ~~
T +T E T +T E S +S T S. T +S T E E S E. +Q S E. S S S S
e|----------------------------------------------------------------------------|------------------------------|
B|----------------------------------------------------------------------------|------------------------------|
G|9b11r(9)p7tr9------9b11r(9)p7tr9-9b11r(9)p=7h=====9------9b11r(9)p==7-9----7|-7--9-----(9)-----7-9--7h9-9-9|
D|----------------------------------------------------------------------------|------------------------------|
A|----------------------------------------------------------------------------|------------------------------|
E|----------------------------------------------------------------------------|------------------------------|
|
| Gtr II
| ~~
|E E E E +S +S S S S E. +E S S +E S S S E. S S S S
e|---------------------------------------------------------------------------|-------------------------------|
B|---------------------------------------------------------------------------|-------------------------------|
G|9b12----------9b12----------9b12-9b12-----(9)pb12r===(9)-7-----------7s9---|(9)s===7s9-(9)-----7h9------7h9|
D|-----------------------------------------------------------------9---------|---------------7h9------7h9----|
A|---------------------------------------------------------------------------|-------------------------------|
E|---------------------------------------------------------------------------|-------------------------------|

D Em
~~ ~~~~~~
|--3--|
+E S S S E. S S S S +E S S T +T T T S S S S S S S S S S S S S S S
e||------------------------------|------------------------------------------------------------|
B||------------------------------|------------------------------------------------------------|
G||-(9)-----7h9------7h9-(9)-7-9-|-9b11r(9)p7h9p7---------------------------------------------|
D||-----7h9------7h9-------------|----------------9-7---7s5-----5s4-------4h5p==4-------4h====|
A||------------------------------|------------------------------------7-------------7---------|
E||------------------------------|------------------------------------------------------------|
|
| ~~~~~ ~~ ~~~~~~
| |--3--| |---3---|
| +E S S S E. S S S S +E S S S S S S S S S T T S S S S S S S S S S
e||------------------------------|------------------------------------------------------------|
B||------------------------------|------------------------------------------------------------|
G||-(9)-----7-9------7-9-(9)-----|------------------------------------------------------------|
D||-----7h9------7-9---------9p7-|-9p=======7s==5-7-5s4-5-4h5p4---4h5p==4-----4h==5p==4-------|
A||------------------------------|------------------------------7---------7-------------7-----|
E||------------------------------|------------------------------------------------------------|

D
|--3--| |--3--| |--3--| |-3-|
S S S S S S S S S S S S S E S S S E
e|-------------------------------------------------|
B|-------------------------------------------------|
G|-------------------------------------------------|
D|-5p4-----4h5p==4-----4h5p==4-------4h5-7-4h5p4---|
A|-------7-----------7-----------7---------------7-|
E|-------------------------------------------------|
|
| |---3---|
| S S S T T S S S S S S S E E E
e|-------------------------------------------------|
B|-------------------------------------------------|
G|-------------------------------------------------|
D|-4---5---7---4h==5p4-----4h==5p==4---x-----------|
A|---------------------7-------------7---7-5-----5-|
E|-------------------------------------------------|

Em D
~~
S E. +E E Q E S S Q. E Q E E
e|----------------------|------------------|
B|----------------------|------------------|
G|----------------------|------------------|
D|-------------4--5-4h5-|-4----4-----------|
A|-5s=7--(7)------------|--------5----5----|
E|-0-(0)-----0----------|-----------7------|
|
| ~~
| S E. +E E Q E S S Q. E Q E E
e|----------------------|------------------|
B|----------------------|------------------|
G|----------------------|------------------|
D|-------------4--5-4h5-|-4----4-----------|
A|-5s=7--(7)------------|--------5----5----|
E|-0-(0)-----0----------|-----------7------|

Em D Em D
Gtrs I, II
~~ ~~
S E. +E E Q E. S Q. E Q E E S E. +E E Q E S S Q. E Q E E
e|---------------------|---------------|----------------------|---------------|
B|---------------------|---------------|----------------------|---------------|
G|---------------------|---------------|----------------------|---------------|
D|-------------4--5--7-|-7----7-4------|-------------4--5-4h5-|-4----4--------|
A|-5s=7--(7)-----------|-----------5---|-5s=7--(7)------------|--------5----5-|
E|-0-(0)-----0---------|-------------7-|-0-(0)-----0----------|-----------7---|

Em D
~~
S E. +E E Q E. S Q. E Q S +S E
e|---------------------|--------------------||
B|---------------------|--------------------||
G|---------------------|--------------------||
D|-------------4--5--7-|-7----7-4-----------||
A|-5s=7--(7)-----------|-----------5-(5)/---||
E|-0-(0)-----0---------|------------------0-||

E7(type 3)
S E S E S S +S S E E E S E S E S S +S S E E E
e|------------------------------------|------------------------------------|
B|------------------------------------|------------------------------------|
G|------------------------------------|------------------------------------|
D|----------12---------------12----12-|----------12---------------12----12-|
A|----14----------14-(14)-------14----|----14----------14-(14)-------14----|
E|-12----12----12---------12----------|-12----12----12---------12----------|


S E S E S S +S S E E E S E S E S S +S S E E E
e|------------------------------------|------------------------------------|
B|------------------------------------|------------------------------------|
G|------------------------------------|------------------------------------|
D|----------12---------------12----12-|----------12---------------12----12-|
A|----14----------14-(14)-------14----|----14----------14-(14)-------14----|
E|-12----12----12---------12----------|-12----12----12---------12----------|

E5
S E S E S S +S S E E E Q H.
e|------------------------------------|-----------*|
B|------------------------------------|-----------*|
G|------------------------------------|-9\--------*|
D|----------12---------------12----12-|-9\--------*|
A|----14----------14-(14)-------14----|-7\--------*|
E|-12----12----12---------12----------|-0---------*|


************************************

| x Dead note
| g Grace note
| (n) Ghost note
| h Hammer-on
| p Pull-off
| r Release
| > Accented note
| t Tapping
| b Bend
| br Bend release
| pb Pre-bend
| pbr Pre-bend release
| / Slide up
| Slide down
| ~ Vibrato
| s Slap
| P Pop
| PM Palm mute
| TR Trill
| N Tremolo

************************************
Tunning: Standard (E A D G B e)
#----------------------------------PLEASE NOTE---------------------------------#
#This file is the author's own work and represents their interpretation of the #
#song. You may only use this file for private study, scholarship, or research. #
#------------------------------------------------------------------------------##

To: jamesb@animal-farm.nevada.edu

Posted by: stevep@snowhite.cis.uoguelph.ca (Steve Portigal)
To: rec.music.makers.guitar.tablature
Date: 27 Oct 1993 10:46:42 -0500


WARPIGS
Black Sabbath


As almost all of Black Sabbath's tunes it consists of some basic riffs
and a solo (or two). This one however contains also some fills. These
riffs and fills are:

RIFF 1

D E
----------------|----------------|----------------|----------------|
7-9-------------|----------------|----------------|----------------|
7-9-------------|----------------|----------------|----------------|
7-9-------------|----------------|----------------|----------------|
5-7-------------|----------------|----------------|----------------|
----------------|----------------|----------------|----------------|

RIFF2

----------------|----------------|----------------|----------------|
7-9-------------|--------12--11--|10--------------|--------8-------|
7-9-------------|--------12--11--|10--------------|9---------------|
7-9-------------|--------12--11--|10--------------|9---------------|
5-7-------------|--------10--9---|8---------------|7---------------|
----------------|----------------|----------------|----------------|

tr.
----------------|----------------|----------------|----------------|
7-9-------------|--------12--11--|10--------------|--------7(9)----|
7-9-------------|--------12--11--|10--------------|9---------------|
7-9-------------|--------12--11--|10--------------|9---------------|
5-7-------------|--------10--9---|8---------------|7---------------|
----------------|----------------|----------------|----------------|


----------------|----------------|----------------|----------------|
7-9-------------|--------12--11--|10--------------|--------8-------|
7-9-------------|--------12--11--|10--------------|9---------------|
7-9-------------|--------12--11--|10--------------|9---------------|
5-7-------------|--------10--9---|8---------------|7---------------|
----------------|----------------|----------------|----------------|


----------------|----------------|----------------|----------------|
7-9-------------|--------12--11--|10--------------|----------------|
7-9-------------|--------12--11--|10--------------|9-------9-------|
7-9-------------|--------12--11--|10--------------|9-------9-------|
5-7-------------|--------10--9---|8---------------|7-------7-------|
----------------|----------------|----------------|----------------|

RIFF 3

--------12------|----------------|--------12------|----------------|
--------12------|----------------|--------12------|----------------|
--------12------|----------------|--------12------|----------------|
----------------|----------------|----------------|----------------|
----------------|----------------|----------------|----------------|
0-0-0-0-------0-|--0---0-3-------|0-0-0-0-------0-|--0---0-3-------|

RIFF 4

----------------|----------------|----------------|----------------|
----------------|----------------|----------------|----------------|
----------------|----------------|----------------|----------------|
--------2p0-----|--------2p0-----|--------2p0-----|--------2p0-----|
----------------|----------------|----------------|----------------|
0-0-0-0-------0-|--0---0-----3---|0-0-0-0-------0-|--0---0-----3---|

RIFF 5

----------------|----------------|----------------|----------------|
----------------|----------------|----------------|----------------|
----------------|----------------|----------------|----------------|
9---------------|----------9-9-9-|9s7-------------|----------7-7-7-|
7---------------|----------7-7-7-|7s5-------------|----------5-5-5-|
----------------|----------------|----------------|----------------|

----------------|----------------|----------------|----------------|
----------------|----------------|----------------|----------------|
----------------|----------------|----------------|----------------|
7s9-------------|----------9-9-9-|9s7-------------|----------------|
5s7-------------|----------7-7-7-|7s5-------------|----------------|
----------------|----------------|----------------|----------------|

RIFF 6A RIFF 6C (end of song)
----------------|----------------| ----------------|
----------------|----------------| ----------------|
--------7-------|----7-------7---| 9---------------|
--9-----------9-|--------9-------| ----------------|
7-----7-----7---|--7-------------| ----------------|
----------------|----------------| ----------------|

RIFF 6B

----------------|----------------|----------------|----------------|
----------------|----------------|----------------|----------------|
--------7-------|----7-------7---|----------------|----------------|
--9-----------9-|--------9-------|9---------------|----------------|
7-----7-----7---|--7-------------|7-----9-----12--|----12--12--12--|
----------------|----------------|------7-----10--|----10--10--10--|

----------------|----------------|----------------|----------------|
----------------|----------------|----------------|----------------|
--------7-------|----7-------7---|----------------|----------------|
--9-----------9-|--------9-------|9-----12----9---|----9---9---9---|
7-----7-----7---|--7-------------|7-----10----7---|----7---7---7---|
----------------|----------------|----------------|----------------|

RIFF 7

----------------|----------------|----------------|----------------|
----------------|----------------|----------------|----------------|
--------5-------|----5-------5---|--------5-------|----5-------5---|
--7-----------7-|--------7-------|--7-----------7-|--------7-------|
5-----5-----5---|--5-------------|5-----5-----5---|--5-------------|
----------------|----------------|----------------|----------------|

----------------|----------------|----------------|----------------|
----------------|----------------|----------------|----------------|
--------3-------|----3-------3---|--------3-------|----3-------3---|
--5-----------5-|--------5-------|--5-----------5-|--------5-------|
3-----3-----3---|--3-------------|3-----3-----3---|--3-------------|
----------------|----------------|----------------|----------------|

----------------|----------------|----------------|----------------|
----------------|----------------|----------------|----------------|
----------------|----------------|----------------|----------------|
4---------------|----5-------5---|4---------------|----------------|
2---------------|----3-------3---|2---------------|----------------|
----------------|----------------|----------------|----------------|

FILL 1 FILL 2 FILL 3
tr.
----------------| ----------------| --------12------|
----------------| ----------------| --------12------|
-------4p2p0----| ----------------| --------12------|
------------2---| ----------------| ----------------|
----------------| 5(7)------------| ----------------|
----------------| ----------------| ----------------|

p = Pull-off
s = Slide

All three notes of the 4p2p0 lick in Fill 1 should equal the time of a
quarter. Thus, they should look like this in a standard transcription:

__3__
| | |
4 2 0

Timing is exact with 2 '-'s an 8th, 4 '-'s a quarter etc.

The song flow and lyrics are:

[Riff 1] x2
w/[Riff 1]
Generals gathered in their masses
Just like witches at black masses
Evil minds that plot destruction
Sorcerers of death's construction
In the fields are bodies burning [Fill 1]
As the war machine keeps turning [Fill 2]
Death and hatred to mankind [Fill 3]
Poisoning their brainwashed minds, Oh Lord yeah
[Riff 2]
[Riff 3] x2
w/[Riff 4]
Politicians hide themselves away
They only started the war
Why should they go out to fight
They leave that all to the poor
[Riff 3]
w/[Riff 4]
Time will tell on their power minds
Making war just for fun
Treating people just like pawns in chess
Wait til the judgement day comes
[Riff 2]
[Solo 1] (not transcribed in this post)
[Riff 5]
[Riff 1] x2
w/[Riff 1]
Now in darkness world stops turning
As you hear the bodies burning
No more warpigs have the power
And as God has struck the hour
Day of judgement, God is calling [Fill 1]
On their knees the warpigs crawling [Fill 2]
Begging mercy for their sins [Fill 3]
Satan laughing spreads his wings, Oh Lord yeah
[Riff 2]
[Riff 6A]
[Riff 6B] x2
[Riff 6A] x4
[Riff 7]
[Solo 2] (not transcribed in this post)
[Riff 6A] x5
[Riff 6C]

--
+----------------------------------------------------------------------------+
| Steve Portigal, Dep't of CIS, University of Guelph, Guelph, ON, N1G 2W1 |
| email: stevep@snowhite.cis.uoguelph.ca Phone: (519) 824-4120 ext 3580 |
| The motel of lost companions waits with heated pool and bar... |
+----------------------------------------------------------------------------+
Tunning: Standard (E A D G B e)
"Warpigs" - Black Sabbath
Album: Paranoid
Tabbed by: DxL - MelvinTheLlama@aol.com - AIM: dxlogan187 - MSN: dxlogan316@hotmail.com

No one has tabbed this out completely, so I decided to spend my
Saturday afternoon tabbing out as many tabs as I could. I'm pretty
sure that this is 100% correct. If not, bite me! ;)

Standard Tuning - EADGBE

1st time 2nd time
|-------------------------||--------------||----------------|
|-------------------------||--------------||----------------|
|-(7)/9--------7/9-9\-----||--------------||----------------|
|-(7)/9--------7/9-9\-----||--------------||----------------|
|-(5)/7--------5/7-7\5~~--||-11-11h12-11--||-11-11h12-12/14-|
|-------------------------||-0--0-----0---||-0--0-----0-----|

1 2 3
|----------||---------||--------||--12-------|
|----------||---------||--------||--12-------|
|----------||-4p2p0---||--------||--12-------|
|-12--14---||-------2-||-0202020||-----------|
|-12--14---||---------||--------||-----------|
|-10--12---||---------||--------||-----------|

|-----------------------||-----||--------------------------|
|-----------------------||-----||--------------------------|
|-----------------------||-12~-||--------------------------|
|-12-14---17-16-15---14-||-----||----121412141214----------|
|-12-14---17-16-15---14-||-----||-/14----------------------|
|-10-12---15-14-13---12-||-----||--------------------------|

|---------12\-------------------||----------------------------|
|---------12\-------------------||----------------------------|
|---------12\-------------------||----------------------------|
|-------------------------------||---------2p0---------2p0----|
|-------------------------------||----------------------------|
|-0-0-0-0------0--0-0-3^~~~-----||-0-0-0-0-----0--0--0-----3~-|

1st solo:
|------------------------------------------------------------------------------------|
|------------------------------------------------------------------------------------|
|------------------------------------------------------------------------------------|
|------------------------------------------------------------------------------------|
|11h12---12p11---11\7---7\5---5/7----7p5---5h7---7/11---11/12---12p11---11h12--12/14-|
|------0-------0------0-----0------------0-----0------0-------0-------0-------0------|


|----------------------------------------------12-----12-----------|
|--------------------------------------------12-----12--15^-15^----|
|-------------------------12----------12--14^----14^---------------|
|------12h14-14------12h14-------12h14-----------------------------|
|-12h14---------12h14-------12h14----------------------------------|
|------------------------------------------------------------------|


|-12-----------------|--------------------|----------12----15^--|
|---15-12---12-15p12-|----15p12---15p12---|-15p12--12--15^------|
|--------14^---------|---------14------14-|------14-------------|
|--------------------|--------------------|---------------------|
|--------------------|--------------------|---------------------|
|--------------------|--------------------|---------------------|


|-15^-15^-15^-12----|-12--12-------------|----------------------------|
|----------------15-|-------15-15p12--12-|-15p12----------------------|
|-------------------|---------------14---|------14-14p12--12----------|
|-------------------|--------------------|--------------14---14---14--|
|-------------------|--------------------|----------------------------|
|-------------------|--------------------|----------------------------|


|----------------------------|-----------|---------------------|
|-7--7--7--7-----------------|-----------|---------------------|
|-9^-9^-9^-9^-^9--7---7h9~~--|-----7h9~~-|-----7h9~~-9---7-9---|
|-------------------9--------|-7h9-------|-7h9-----------------|
|----------------------------|-----------|---------------------|
|----------------------------|-----------|---------------------|


|-----------------------------|----------------|-----------|
|-----------------------------|-7--7--7--7-----|-----------|
|-11r9p7h9p7h9-( x 10 )--11p9-|-9^-9^-9^-9^-^9-|-9p7-7h9~~-|
|-----------------------------|----------------|-----------|
|-----------------------------|----------------|-----------|
|-----------------------------|----------------|-----------|

|---------------------------------------------------------------|
|---------------------------------------------------------------|
|---------------------------------------(1/2 step)--------------|
|---------------------------------------------------------------|
|11h12---12p11---11\7---7\5---5/7-----6^-6^-6^-6^--( x 2 )------|
|------0-------0------0-----0-----------------------------------|


2nd solo:
|--------------------------------------------------------|
|--------------------------------------------------------|
|-------7-------7---7--------7-------7---7--9-----7------|
|---9-------9-----9------9-------9-----9----9--9--7------|
|-7---7---7---7--------7---7---7---7--------7--9--5------|
|----------------------------------------------7---------|


|-------------------------------------------------------|
|-------------------------------------------------------|
|-------7-------7---7--9--12--9-------------------------|
|---9-------9-----9----9--12--9-------------------------|
|-7---7---7---7--------7--10--7-------------------------|
|-------------------------------------------------------|


|---------------------|---------------------|---------------------|--|
|---------------------|---------------------|---------------------|--|
|-------7-------7---7-|-------5-------5---5-|-------3-------3---3-|--|
|---9-------9-----9---|---7-------7-----7---|---5-------5-----5---|--|
|-7---7---7---7-------|-5---5---5---5-------|-3---3---3---3-------|--|
|---------------------|---------------------|---------------------|--|


|--------------|------------------------------------------------------|
|--------------|------------------------------------------------------|
|--------------|------------------------------------------------------|
|-9---10-10-9--|-------4-5-4h5-4---4-----------4-5-7-7---9-9----------|
|-9---10-10-9--|--5h7----------------5---5-5h7------------------------|
|-7----8--8-7--|--0--------------------7---0--------------------------|


|-------------------------------|----------|----------------|
|-------------------------------|----------|-------( x 8 )--|
|-4/7-7h9-9---7h9-9^-9^-9^9-7h9-|--7---7-9-|-11r9p7h9p7h9---|
|-------------------------------|----9-----|----------------|
|-------------------------------|----------|----------------|
|-------------------------------|----------|----------------|


|--------------|--------------|---------------|----------------------|
|-7--7--7--7---|--------------|---------------|----------------------|
|-9^-9^-9^-9^9-|-7---7h9--7p9~|--7h9~~--------|-7h9~~---------7h9~~--|
|--------------|---9----------|---------7h9~~-|---------7h9~~--------|
|--------------|--------------|---------------|----------------------|
|--------------|--------------|---------------|----------------------|

|----------|---------------|---------------------|----------------|
|----------|---------------|---------------------|----------------|
|-----7h9--|------7h9--7-9-|-11r9p7h9p7----------|----------------|
|-7h9------|--7h9----------|------------9p7-7----|----------------|
|----------|---------------|------------------10-|-10-9-7-9-1097-9|
|----------|---------------|---------------------|----------------|


|------------------------------|--------------------------|
|------------------------------|--------------------------|
|------------------------------|--------------------------|
|------------------------------|--------7-----------------|
|-10p9p7--9--10p9p7--9--10p9p7-|-9--10------9h10p9p7--7---|
|------------------------------|--------------------------|

|------------------------------------------------------|
|------------------------------------------------------|
|------------------------------------------------------|
|-------4-5-4h5-4---4-----------4-5-7-7---9-9----------|
|--5h7----------------5---5-5h7------------------------|
|--0--------------------7---0--------------------------|

|--------------------------------------------------------|
|--------------------------------------------------------|
|-------7-------7---7--------7-------7---7---------------|
|---9-------9-----9------9-------9-----9-----------------|
|-7---7---7---7--------7---7---7---7------accelerate...--|
|--------------------------------------------------------|
Tunning: Standard (E A D G B e)
This is my fisrt tab, hope you like it... Also i'll try and get the solo tabbed later.
mastur_chee@yahoo.com
WARPIGS
Black Sabbath

RIFF 1

D E
----------------|----------------|----------------|----------------|
7-9-------------|----------------|----------------|----------------|
7-9-------------|----------------|----------------|----------------|
7-9-------------|----------------|----------------|----------------|
5-7-------------|----------------|----------------|----------------|
----------------|----------------|----------------|----------------|

RIFF2

----------------|----------------|----------------|----------------|
7-9-------------|--------12--11--|10--------------|--------8-------|
7-9-------------|--------12--11--|10--------------|9---------------|
7-9-------------|--------12--11--|10--------------|9---------------|
5-7-------------|--------10--9---|8---------------|7---------------|
----------------|----------------|----------------|----------------|

tr.
----------------|----------------|----------------|----------------|
7-9-------------|--------12--11--|10--------------|--------7(9)----|
7-9-------------|--------12--11--|10--------------|9---------------|
7-9-------------|--------12--11--|10--------------|9---------------|
5-7-------------|--------10--9---|8---------------|7---------------|
----------------|----------------|----------------|----------------|


----------------|----------------|----------------|----------------|
7-9-------------|--------12--11--|10--------------|--------8-------|
7-9-------------|--------12--11--|10--------------|9---------------|
7-9-------------|--------12--11--|10--------------|9---------------|
5-7-------------|--------10--9---|8---------------|7---------------|
----------------|----------------|----------------|----------------|


----------------|----------------|----------------|----------------|
7-9-------------|--------12--11--|10--------------|----------------|
7-9-------------|--------12--11--|10--------------|9-------9-------|
7-9-------------|--------12--11--|10--------------|9-------9-------|
5-7-------------|--------10--9---|8---------------|7-------7-------|
----------------|----------------|----------------|----------------|

RIFF 3

--------12------|----------------|--------12------|----------------|
--------12------|----------------|--------12------|----------------|
--------12------|----------------|--------12------|----------------|
----------------|----------------|----------------|----------------|
----------------|----------------|----------------|----------------|
0-0-0-0-------0-|--0---0-3-------|0-0-0-0-------0-|--0---0-3-------|

RIFF 4

----------------|----------------|----------------|----------------|
----------------|----------------|----------------|----------------|
----------------|----------------|----------------|----------------|
--------2p0-----|--------2p0-----|--------2p0-----|--------2p0-----|
----------------|----------------|----------------|----------------|
0-0-0-0-------0-|--0---0-----3---|0-0-0-0-------0-|--0---0-----3---|

RIFF 5

----------------|----------------|----------------|----------------|
----------------|----------------|----------------|----------------|
----------------|----------------|----------------|----------------|
9---------------|----------9-9-9-|9s7-------------|----------7-7-7-|
7---------------|----------7-7-7-|7s5-------------|----------5-5-5-|
----------------|----------------|----------------|----------------|

----------------|----------------|----------------|----------------|
----------------|----------------|----------------|----------------|
----------------|----------------|----------------|----------------|
7s9-------------|----------9-9-9-|9s7-------------|----------------|
5s7-------------|----------7-7-7-|7s5-------------|----------------|
----------------|----------------|----------------|----------------|

RIFF 6A RIFF 6C (end of song)
----------------|----------------| ----------------|
----------------|----------------| ----------------|
--------7-------|----7-------7---| 9---------------|
--9-----------9-|--------9-------| ----------------|
7-----7-----7---|--7-------------| ----------------|
----------------|----------------| ----------------|

RIFF 6B

----------------|----------------|----------------|----------------|
----------------|----------------|----------------|----------------|
--------7-------|----7-------7---|----------------|----------------|
--9-----------9-|--------9-------|9---------------|----------------|
7-----7-----7---|--7-------------|7-----9-----12--|----12--12--12--|
----------------|----------------|------7-----10--|----10--10--10--|

----------------|----------------|----------------|----------------|
----------------|----------------|----------------|----------------|
--------7-------|----7-------7---|----------------|----------------|
--9-----------9-|--------9-------|9-----12----9---|----9---9---9---|
7-----7-----7---|--7-------------|7-----10----7---|----7---7---7---|
----------------|----------------|----------------|----------------|

RIFF 7

----------------|----------------|----------------|----------------|
----------------|----------------|----------------|----------------|
--------5-------|----5-------5---|--------5-------|----5-------5---|
--7-----------7-|--------7-------|--7-----------7-|--------7-------|
5-----5-----5---|--5-------------|5-----5-----5---|--5-------------|
----------------|----------------|----------------|----------------|

----------------|----------------|----------------|----------------|
----------------|----------------|----------------|----------------|
--------3-------|----3-------3---|--------3-------|----3-------3---|
--5-----------5-|--------5-------|--5-----------5-|--------5-------|
3-----3-----3---|--3-------------|3-----3-----3---|--3-------------|
----------------|----------------|----------------|----------------|

----------------|----------------|----------------|----------------|
----------------|----------------|----------------|----------------|
----------------|----------------|----------------|----------------|
4---------------|----5-------5---|4---------------|----------------|
2---------------|----3-------3---|2---------------|----------------|
----------------|----------------|----------------|----------------|

FILL 1 FILL 2 FILL 3
tr.
----------------| ----------------| --------12------|
----------------| ----------------| --------12------|
-------4p2p0----| ----------------| --------12------|
------------2---| ----------------| ----------------|
----------------| 5(7)------------| ----------------|
----------------| ----------------| ----------------|

p = Pull-off
s = Slide

All three notes of the 4p2p0 lick in Fill 1 should equal the time of a
quarter. Thus, they should look like this in a standard transcription:

__3__
| | |
4 2 0

Timing is exact with 2 '-'s an 8th, 4 '-'s a quarter etc.

The song flow and lyrics are:

[Riff 1] x2
w/[Riff 1]
Generals gathered in ...
Just like witches ..
Evil minds that ...
Sorcerers of ...
In the fields are bodie...[Fill 1]
As the war ...[Fill 2]
Death and ...[Fill 3]
Poisoning their ....
[Riff 2]
[Riff 3] x2
w/[Riff 4]
Politicians hide ..
They only ...
Why should they go ...
They leave that ...
[Riff 3]
w/[Riff 4]
Time will tell on ...
Making war just ...
Treating people just ...
Wait til the ...
[Riff 2]
[Solo 1] (not transcribed in this post)
[Riff 5]
[Riff 1] x2
w/[Riff 1]
Now in darkness world ...
As you hear the ..
No more warpigs ...
And as God has ..
Day of judgement, God ....[Fill 1]
On their knees the ...[Fill 2]
Begging mercy for ...[Fill 3]
Satan laughing ...
[Riff 2]
[Riff 6A]
[Riff 6B] x2
[Riff 6A] x4
[Riff 7]
[Solo 2] (not transcribed in this post)
[Riff 6A] x5
[Riff 6C]
Tunning: Standard (E A D G B e)
"War Pigs"
by black sabbath

the right way to play war pigs

r=release
~=vibrato

Intro
e--|-----------|-----------------------|-------------|------|---------------|
b--|-----------|-----------------------|-------------|------|---------------|
g--|-----------|-----------------------|-------------|------|---------------|
d--|-----------|--6--6h-7--6~----------|-6--6h-7---9~|-9-9/9|-7-7/9---------|X3
a--|--7-7-7/5~~|--7--7--7--7~--7-7/5~~-|-7--7-(7)--7~|-7-5/7|-5-5/7---------|
E-0|--0-0-0----|--0-(0)(0)-0~--0-------|-0-(0)-----0~|-0-0--|---------------|


verse A Verse riff1 riff2 Verse riff 3
e------|-----------|---------|-----12/-----------------------------|
b------|-----------|---------|-----12/-----------------------------|
g------|---4p2p0---|---------|-----12/-----------------------------|
d-7-9--|--------2--|---------|-------------------------------------|
a-5-7--|-----------|--5tr7---|-------------------------------------|
E------|-----------|---------|-0-----------------------------------|
Bridge
e---------|-------------------|------|-------------------------------------|
b---------|-------------------|------|-------------------------------------|
g---------|--------------12~~ |------|-------------------------------------|
d---------|-------------------|------|---------------12tr14----------------|
a-12-14---|-17-16-15~-14------|-12-14|-17-16-15~-14------------------------|
E-10-12---|-15-14-13~-12------|-10-12|-15-14-13~-12------------------------|

e--------|-------------------|-------|-------------|----------------------|
b--------|-------------------|-------|-------------|----------------------|
g--------|---------------12~~|-------|-------------|----------------------|
d--------|-------------------|-------|-------------|----------------------|
a-12-14--|-17-16-15~-14------|-12-14-|-17-16-15~-14|--14/-----------------|
E-10-12--|-15-14-13~-12------|-10-12-|-15-14-13~-12|--12/-----------------|
verse B
e-----------12/-|----------|-------------------------|----------------------|
b-----------12/-|----------|-------------------------|----------------------|
g-----------12/-|----------|-------------------------|----------------------|
d---------------|----------|X3---------2p0-----------|X3--------------------|repeat-whole-verse
a---------------|----------|-------------------------|----------------------|
E-0-0-0-0-------|-0-0-0-3~~|---0-0-0-0------0-0-0-3~~|----Then-play-Bridge--|
solo A
e---------------------------------------------------------------------------|
b---------------------------------------------------------------------------|
g---------------------------------------------------------------------------|
d---------------------------------------------------------------------------|
a-11/12--12/11--11/7--7/5--5/7-7-7/5--5/7--11/7--11/12-12/11--11/12--12h14--|
E------0------0-----0----0------0---0----0-----0------0-----0------0--------|

e------------|-----------------------------12^|------12------12------12-12--|
b------------|-----------------------------12^|----12------12------12---15^-|
g------------|-------------12^----------------|-14^-----14^-----14^---------|
d-------12h14|-------12h14-----------12h14----|-----------------------------|
a-12h14------|-12h14-----------12h14----------|-----------------------------|
E------------|--------------------------------|-----------------------------|
solo B
e----|------------------|-----------------------|---------------------------|
b-15^|------------------|------------~~---------|---------------------------|
g----|------------------|-9^-9^-9^-9^--9p7-7h9-9|-----7h9~~-----7h9-9-------|
d----|E-minor-pentatonic|-----------------------|-7h9-------7h9-------------|
a----|------------------|-----------------------|---------------------------|
E----|------------------|-----------------------|---------------------------|

e--------|---------|--------------------|---|-------------------------|-----|
b-------p|-------p-|--------------------|---|-------------------------|-----|
g-7-9-9^-|-7-9-9^--|-9^-9^-9^-9^-9p7-7h9|---|-------------------------|-----|
d--------|--------x6--------------------|-9-|-------------------------|-----|
a--------|---------|--------------------|-7-|-11/12-12/11-11/7-7/5-5/7|-----|
E--------|---------|--------------------|-0-|------0-----0----0---0---|-----|

e-----------------|-------------------|--------|----------|--------|--------|
b-----------------|-------------------|--------|----------|--------|--------|
g-----------------|-------------------|--------|----------|--------|--------|
d-----------------|-------------------|-------9|-------9/7|repeatx1|verse-A-|
a--7/5-5/7-7/5-5/7|--5/7-5/7-5/7-5/7~~|-7-7-7-7|-7-7-7-7/5|--------|--------|
E-0---0---0---0---|-0---0---0---0-----|-------0|----------|--------|--------|
play Outro A
e-------|--------------------|-------|------------|-------------------|-----|
b-------|--------------------|-------|------------|-------------------|-----|
g-------|------7--------7---7|-------|------------|------7-------7---7|-----|
d-bridge|--9-------9------9-X1-9---7~|-7-7-7-7-7-7|--9-------9-----9--|-----|
a-------|-7--7----7---7------|-7-9-5~|-5-5-5-5-5-5|-7--7---7---7------|-----|
E-------|--------------------|---7---|------------|-------------------|-----|

e-------|-----------------------|------|------------|-----------------------|
b-------|-----------------------|------|------------|-----------------------|
g-------|--------7--------7---7-|------|------------|--------7--------7---7-|
d-9-12-9|---9--------9------9---|-9---7|-7-7-7-7-7-7|---9---------9-----9---|
a-7-10-7|-7---7----7---7--------|-7-9-5|-5-5-5-5-5-5|-7---7-----7---7-------|
E-------|-----------------------|---7--|------------|-----------------------|

e-------|-------------|----------------------|---------------------|--------|
b-------|-------------|----------------------|---------------------|--------|
g-------|-------------|--------7-------7---7-|--------5-------5---5|--------|
d-9-12-9|-9-9-9-9-9-9-|---9--------9-----9--X3---7--------7-----7--|X2------|
a-7-10-7|-7-7-7-7-7-7-|-7---7----7---7-------|-5---5----5---5------|--------|
E-------|-------------|----------------------|---------------------|--------|
Outro B
e---------------------|----------------|------------------------------------|
b---------------------|----------------|------------------------------------|
g--------3-------3---3|-4~~------------|------------------------------------|
d---5--------5-----5-X2-4~~-4/5-5--5--4|-9----------------------------------|
a-3---3----3---3------|-2~~-2/3-3--3--2|-7--9-10-9h10-9--9-9----------------|
E---------------------|----------------|-0-------------------10-7-10--------|

e--------------------------------------|------------|-----------------------|
b---------------------------------------------------|-----------------------|
g---------------------------------------------------|-------------------7-7-|
d-9------7-7--7-7---------9-------------------------|-9------7-7--9-9~-9----|
a-7-9-10----------9-------7-9-10-9h10-9--9-9--------|-7-9-10----------------|
E-0-----------------10-7--0------------------10-7-10|-0---------------------|
solo 2
e------|----------------|--------------|---------|--------------------------|
b------|----------------|--------------|---------|--------------------------|
g-9-9~~|-7-9^-9^-9^-7h9~|-7---7-9-9^-p7|-9-9^rp7-|---9^rp7-9p7---7-9^-9^-9^-|
d------|----------------|---9----------|---------|X9-----------9------------|
a------|----------------|--------------|---------|--------------------------|
E------|----------------|--------------|---------|--------------------------|

e---|----------------|----------------------|-------------------------------|
b---|----------------|----------------------|-------------------------------|
g-9^|----------------|-12-11h12p11-11-9h11p9|-9-7h9p7-----------------------|
d---|-E-minor-Wankery|----------------------|---------10-9h10p9-------------|
a---|----------------|----------------------|-------------------------------|
E---|----------------|----------------------|-------------------------------|
outro B
e------------------|----------------|---------------------------------------|
b------------------|----------------|---------------------------------------|
g------------------|----------------|---------------------------------------|
d-9-7h9p7----------|----------------|-9~~-----------THE-END-----------------|
a---------10-9h10p9|-9-7h9p7--------|-7~~-----------------------------------|
E------------------|---------10-10-7|-0~~-----------------------------------|

BY: SAM AND GRIFFIN.
Tunning: Standard (E A D G B e)
Artist: Black Sabbath
Song: War Pigs
Album: Paranoid

Intro
E |------------------------------------------------------|
B |------------------------------------------------------|
G |------------------------------------------------------|
D |-----------------9--7-------6h7-6h7--6----------------|
A |-5h7--------5/7--7--5-------7---7----7----------------|
E |-0----------0----0----------0---0----0----------------|


E |------------------------------------------------------|
B |------------------------------------------------------|
G |------------------------------------------------------|
D |-7/9--9----------6h7-6h7—-9~~~~7/9--9-----------------|
A |-5/7--7—5~~~~~~--7---7----7----5/7--7-5~~~~~~~--------|
E |-0---------------0---0----0----0----------------------|


E |------------------------------------------------------|
B |------------------------------------------------------|
G |------------------------------------------------------|
D |------------------------------------------------------|
A |-7p5-7p5-5-7-7~~~~~-5-5/7~~~~~~~-7-7/5~~~~~~----------|
E |-0---0-----0-0------0-0----------0-0------------------|

This is the way Iommi plays this riff
E |-------]--------]---------------------]----12---------|
B |-------]after-a-few-repeats-play-in-between12b--------|
G |repeat-]-4p2p0--]---------------------]----12b--------|
D |-------]------2-]-0h2p0h2p0h2p0h2p0h2-]---------------|
A |-12-14-]--------]---------------------]---------------|
E |-10-12-]--------]---------------------]---------------|

Then play
E |-repeat]all-and-play-these-riffs-in-between----]------|
B |-------]----------------]-----]----------------]------|
G |-------]----------------]-12b-]----------------]-12b--|
D |-------]----------------]-----]-12h14p12h14p12-]------|
A |-12-14-]-17-16-15----14-]-----]----------------]------|
E |-10-12-]-15-14-13----12-]-----]----------------]------|


E |-------------------------]----------------------------|
B |----------12b/-----------]----------------------------|
G |----------12b/-----------]----------------------------|
D |-------------------------]---------2p0--------2p0-----|
A |-------------------------]----------------------------|
E |-0-0-0-0--------0-0--0-3-]-0-0-0-0-----0-0--0-----3---|
Pm[________] [_______] [________] [______]
Solo 1:
E |-----------guitar-1-----------------------------------|
B |------------------------------------------------------|
G |------------------------------------------------------|
D |------------------------------------------------------|
A |---11/12-12/11-11/7---7/5-5/7~~~~~~~~~~~~~~~~---------|
E |-0------------------0---------0-----------------------|


E |-----------guitar-1-----------------------------------|
B |------------------------------------------------------|
G |------------------------------------------------------|
D |------------------------------------------12h14-14----|
A |---5/7-7/5---11/7-12/11-11/12-12/14—12h14-------------|
E |-0---------0------------------------------------------|


E |-----------guitar-1----------12-------12------12------|
B |-----------------------------12-----12------12--------|
G |-------------12------------------14b-----14b----------|
D |-------12h14-----------12h14--------------------------|
A |-12h14-----------12h14--------------------------------|
E |------------------------------------------------------|


E |------------guitar 2---------12-------12------12------|
B |-----------------------------12-----12------12--------|
G |---------------------------------14b-----14b----------|
D |------------------------------------------------------|
A |------------------------------------------------------|
E |------------------------------------------------------|


E |------12----guitar-1--12-----------12-----------------|
B |----12----15b—15b~~~~----15-12-15b---15-12-15b--------|
G |-14b--------------------------------------------------|
D |------------------------------------------------------|
A |------------------------------------------------------|
E |------------------------------------------------------|


E |------12----guitar-2--12------------------------------|
B |----12----15b-15b~~~~---15-12--------------15-12~~~~--|
G |-14b-------------------------14b-12h14p12-------------|
D |------------------------------------------------------|
A |------------------------------------------------------|
E |------------------------------------------------------|


E |------------guitar-1-----------12----15-15b~~~~-15b--------------|
B |-15p12—15p12—15p12---12----------15b-----------------------------|
G |-----14----14-----14----14b~~~-----------------------------------|
D |-----------------------------------------------------------------|
A |-----------------------------------------------------------------|
E |-----------------------------------------------------------------|


E |------------guitar-2-----------------------------------|
B |------12-------15p12-----15p12-------------------------|
G |-14---14b~~~14------14p12-----14b~~12h14p12--14--------|
D |-------------------------------------------12--12-12---|
A |----------------------------------------------------14-|
E |-------------------------------------------------------|


E |-15b---15b----15b-12-guitar-1-------------------------|
B |--------------15b---15-12---12-15-15p12---------------|
G |-------------------------14b12---------14-p12---------|
D |----------------------------------------------14~~~---|
A |------------------------------------------------------|
E |------------------------------------------------------|


E |------------guitar-2-------------------12-------------|
B |-----------------------------------------15p12--------|
G |-----------------------------14b-12-14b--------14~~~~-|
D |-12--------------------12----14b----------------------|
A |---------14/12-10—12h14-------------------------------|
E |------------------------------------------------------|


E |-----------guitar-1-----------------------------------|
B |-15p12------------------------------------------------|
G |-------14-14b---12------------------------------------|
D |-------------------14p12-14---------------------------|
A |---------------------------14---10h12-10-----14-------|
E |-----------------------------------------10--12-------|


E |------------guitar-2---12-----------------------------|
B |---------------------15---15-12-----------------------|
G |-12--14b-12b-------------------14b~~~~14-12-----------|
D |-------------14p12h14---------------------------------|
A |------------------------------------------------5h7---|
E |------------------------------------------------0-----|


E |-------------guitar-1---------------------------------|
B |------------------------------------------------------|
G |-9b----9b-----9b-----9b------7-------7--9--7----------|
D |---------------------------------9--------------------|
A |------------------------------------------------------|
E |------------------------------------------------------|


E |-------------guitar-2---------------------------------|
B |------------------------------------------------------|
G |-9b----9b-----9b-----9b~~~~~~r------7h9--7~~~~~-------|
D |------------------------------7h9---------------------|
A |------------------------------------------------------|
E |------------------------------------------------------|


E |-----------guitar-1-----------------------------------|
B |------------------------------------------------------|
G |-7-9------7h9-------7-9-------7-9~~~~~~~~~~~~---------|
D |------7h9-------7h9-------7-9-------------------------|
A |------------------------------------------------------|
E |------------------------------------------------------|


E |-------------guitar-2---------------------------------|
B |------------------------------------------------------|
G |-7~~~~7---7-9--7---7-9---7---7-9~~~~~~~~~~~~~---------|
D |--------9--------9------------------------------------|
A |------------------------------------------------------|
E |------------------------------------------------------|


E |--------------guitar-1---------------------------------|
B |-------------------------------------------------------|
G |-9b-77-9b-77-9b-77-9b-77-9b-77-9b-77-9b-77-9b-77-9b-9--|b
D |-------------------------------------------------------|
A |-------------------------------------------------------|
E |-------------------------------------------------------|


E |--------------guitar-2--------------------------------|
B |------------------------------------------------------|
G |-9b-----777777777777777777777777777777777777777777777-|
D |------------------------------------------------------|
A |------------------------------------------------------|
E |------------------------------------------------------|


E |------------guitar-1----------------------------------|
B |------------------------------------------------------|
G |-9b----9b----9b----9b~~~~~--9p7-7/9~~~~~~~~~~~~~~-----|
D |------------------------------------------------------|
A |------------------------------------------------------|
E |------------------------------------------------------|


E |------------guitar-2----------------------------------|
B |------------------------------------------------------|
G |-9b----9b----9b----9b~~~~~--7h9p7/9b------------------|
D |------------------------------------------------------|
A |------------------------------------------------------|
E |------------------------------------------------------|


E |------------guitar-1----------------------------------|
B |------------------------------------------------------|
G |------------------------------------------------------|
D |------------------------------------------------------|
A |--11/12----12/11—11/7-7/5---5/7-----------------------|
E |----------------0---------0-----0~~-------------------|


E |-----------guitar-2-----------------------------------|
B |------------------------------------------------------|
G |------------------------------------------------------|
D |------------------------------------------------------|
A |--11/12-12-12/11--11/7-7/5---5/7~~~~~~~~--------------|
E |-0----------------------------------------------------|


E |-----------guitar-1-----------------------------------|
B |------------------------------------------------------|
G |------------------------------------------------------|
D |------------------------------------------------------|
A |---6b----6b----6b----6b------6b~~~~~~~----------------|
E |-0----------------------------------------------------|


E |--------------guitar-2--------------------------------|
B |------------------------------------------------------|
G |------------------------------------------------------|
D |------------------------------------------------------|
A |---6b-----6b----6b--------6b----6b--------------------|
E |-0--------------0-------------------------------------|


E |-----------------guitar-1-----------------------------|
B |------------------------------------------------------|
G |------------------------------------------------------|
D |------------------------------------------------------|
A |-----6b----6b----6b----6b----6b~~~~~~~~~~r------------|
E |-0-0--------------------------------------------------|
Pm[____]

E |----------guitar-2------------------------------------|
B |------------------------------------------------------|
G |------------------------------------------------------|
D |------------------------------------------------------|
A |-----6b----6b----6b----6b~~~~6b~~rbrbrbrb-------------|
E |-0-0--------------------------------------------------|


E |------------guitar-1----------------------------------|
B |------------------------------------------------------|
G |------------------------------------------------------|
D |-7/9--------9-9/7--------7-7/9--------9-9/7-----------|
A |-5/7--------7-7/5--------5-5/7--------7-7/5-----------|
E |-0----------0------------0------------0---------------|


E |-----------------guitar-2-----------------------------|
B |------------------------------------------------------|
G |------------------------------------------------------|
D |--9---------9-9/7--------7-7/9--------9-9/7-----------|
A |--7---------7-7/5--------5-5/7--------7-7/5-----------|
E |------------------------------------------------------|
Replay main riff
Solo 2:
E |-----------------guitar-1-----------------------------|
B |------------------------------------------------------|
G |-----------7-------7---7-------7-------7---7----------|
D |-------9-------9-----9-----9-------9-----9------------|
A |-----7---7---7---7-------7---7---7---7----------------|
E |-12/--------------------------------------------------|


E |-------------guitar-2---------------------------------|
B |------------------------------------------------------|
G |------------------------------------------------------|
D |------------------------------------------------------|
A |------------------------------------------------------|
E |---------0---0---0-----------0---0---0----------------|


E |--------guitar-1--------------------------------------|
B |------------------------------------------------------|
G |o-------------------------------7-------7---7---------|
D |-9--------------------------9-------9-----9-----------|
A |o7--9--7----7--7--7--7----7---7---7---7---------------|
E |----7--5----5--5--5--5--------------------------------|


E |-------------guitar-2---------------------------------|
B |------------------------------------------------------|
G |o-----------------------------------------------------|
D |-9----------------------------------------------------|
A |o7--9--7----7--7--7--7--------------------------------|
E |----7--5----5--5--5--5--------0---0---0---------------|


E |------------guitar-1----------------------------------|
B |------------------------------------------------------|
G |--------------------------------7-------7---7-------o-|
D |-9--12-9----9--9--9--9------9-------9-----9-----------|
A |-7--10-7----7--7--7--7----7---7---7---7-------------o-|
E |------------------------------------------------------|


E |------------guitar-2----------------------------------|
B |------------------------------------------------------|
G |----------------------------------------------------o-|
D |-9--12-9----9--9--9--9--------------------------------|
A |-7--10-7----7--7--7--7------------------------------o-|
E |------------------------------0---0---0---------------|

Guitar 2 takes a break for a while
E |------------guitar-1----------------------------------|
B |------------------------------------------------------|
G |-------7-------7---7---------7-------7---7------------|
D |---9-------9-----9-------9-------9-----9--------------|
A |-7---7---7---7---------7---7---7---7------------------|
E |------------------------------------------------------|


E |----------------guitar-1------------------------------|
B |------------------------------------------------------|
G |-------7-------7---7---------5-------5---5------------|
D |---9-------9-----9-------7-------7-----7--------------|
A |-7---7---7---7---------5---5---5---5------------------|
E |------------------------------------------------------|


E |---------------guitar-1-------------------------------|
B |------------------------------------------------------|
G |-------5-------5---5---------3-------3---3------------|
D |---7-------7-----7-------5-------5-----5--------------|
A |-5---5---5---5---------3---3---3---3------------------|
E |------------------------------------------------------|

Guitar 2 comes back
E |--------------------guitar 1--------------------------|
B |------------------------------------------------------|
G |-------3-------3---3----------------------------------|
D |---5-------5-----5-----4--------5---5---4-------------|
A |-3---3---3---3---------2--------3---3---2-------------|
E |------------------------------------------------------|


E |-----------------guitar-2-----------------------------|
B |------------------------------------------------------|
G |------------------------------------------------------|
D |-----------------------4--------5---5---4-------------|
A |-----------------------2--------3---3---2-------------|
E |------------------------------------------------------|


E |--------------guitar-1--------------------------------|
B |------------------------------------------------------|
G |------------------------------------------------------|
D |-7/9-----4---5---4h5-4---4--------7/9-----------------|
A |-5/7-----------------------5-2-5--5/7-----------------|
E |-0-----0--------------------------0-------------------|


E |------------guitar-2----------------------------------|
B |------------------------------------------------------|
G |------------------------------------------------------|
D |-7/9-----4---5---4h5-4---4--------7/9-----------------|
A |-5/7-----------------------5------5/7-----------------|
E |-------0---------------------7------------------------|


E |------------------guitar-1----------------------------|
B |------------------------------------------------------|
G |------------------------------------------------------|
D |-----4---5--7-7~~~~~~~-7-4--------7/9-----------------|
A |---------------------------5------5/7-----------------|
E |-0-0-------------------------7----0-------------------|


E |-------------------guitar-2---------------------------|
B |------------------------------------------------------|
G |------------------------------------------------------|
D |-----4---5--7-7~~~~~~~-7-4--------7/9-----------------|
A |---------------------------2-5----5/7-----------------|
E |-0-0--------------------------------------------------|


E |----------guitar-1----------------]-------------------|
B |----------------------------------]-------------------|
G |----------------------------------]-------------------|
D |---4---5---4h5-4---4--------7/9---]-------------------|
A |---------------------5-2-5--5/7---]-------------------|
E |-0--------------------------0-----]-------------------|


E |--------------guitar-2------------]-------------------|
B |----------------------------------]-------------------|
G |----------------------------------]-------------------|
D |---4---5---4h5-4---4--------7/9---]-------------------|
A |---------------------5------5/7---]-------------------|
E |-0---------------------7----------]-------------------|


E |----------------guitar-1-------------------------------|
B |-------------------------------------------------------|
G |------------------------4-4---4/7—7h9-9-9-9b-9b-9b-7h9-|
D |-----4---5--7-7~~~~~~~---------------------------------|
A |-------------------------------------------------------|
E |-0-0---------------------------------------------------|


E |-----------------guitar-2------------------------------|
B |-------------------------------------------------------|
G |----------------------------------7h9-9-9-9b-9b-9b-----|
D |-----4---5--7-7~~~~~~~-4---------------------------7h9-|
A |-------------------------5-----------------------------|
E |-0-0-----------------------7---------------------------|


E |---------------guitar-1-------------------------------|
B |------------------------------------------------------|
G |-7---7-9—77-9b-77-9b-77-9b-77-9b-77-9b-77-9b-77-9b-77-|
D |---9--------------------------------------------------|
A |------------------------------------------------------|
E |------------------------------------------------------|


E |-----------------guitar-2------------------------------|
B |-------------------------------------------------------|
G |-7h9---7h9-7777777777777777777777777777777777777777777-|
D |----7h9------------------------------------------------|
A |-------------------------------------------------------|
E |-------------------------------------------------------|


E |--------------guitar-1--------------------------------|
B |------------------------------------------------------|
G |-9b-77-9b-77-9b-77-9b-77-9b-77-9b-77-9b-77-9b-77------|
D |------------------------------------------------------|
A |------------------------------------------------------|
E |------------------------------------------------------|

E |------------guitar-2----------------------------------|
B |------------------------------------------------------|
G |-777777777777777777777777777777777777777777777777777--|
D |------------------------------------------------------|
A |------------------------------------------------------|
E |------------------------------------------------------|


E |---------guitar-1-------------------------------------|
B |------------------------------------------------------|
G |-9b----9b----9b----9b--------7---7--9~~~~~~~~~--------|
D |-------------------------------9----------------------|
A |------------------------------------------------------|
E |------------------------------------------------------|


E |--------guitar-2--------------------------------------|
B |------------------------------------------------------|
G |-777777777777777777777777777----7h9-777777777777------|
D |----------------------------7h9-----------------------|
A |------------------------------------------------------|
E |------------------------------------------------------|


E |---------guitar-1-------------------------------------|
B |------------------------------------------------------|
G |-7/9/7------------7h9-----7h-9~~~----7h9---7h9--------|
D |--------------7h9-----7h9---------7h9---7h9----9p7----|
A |------------------------------------------------------|
E |------------------------------------------------------|


E |-------------------guitar-2---------------------------|
B |------------------------------------------------------|
G |-7h9~~~~~~~~~-7---7h9-7---7h9~~~--7-7-9-7---7-9-------|
D |----------------9-------9----------9------9-----9-7---|
A |------------------------------------------------------|
E |------------------------------------------------------|

E |--------------guitar-1--------------------------------|
B |------------------------------------------------------|
G |------------------------------------------------------|
D |-9p7/5-7p5/4-5-4h5p4---4h5p4---4h5p4---4h5p4----------|
A |---------------------7-------7-------7-------7-7----5-|
E |------------------------------------------------------|


E |---------------guitar-2-------------------------------|
B |------------------------------------------------------|
G |-9b--7h9--p7------------------------------------------|
D |-------------9/5-7-5p4-4h5p4---4-5-7---4h5p4---4h5p4--|
A |----------------------7------7---------------7------7-|
E |------------------------------------------------------|


E |--------------guitar-1--------------------------------|
B |------------------------------------------------------|
G |------------------------------------------------------|
D |-7/9-----4---5---4h5-4---4--------7/9-----------------|
A |-5/7-----------------------5-2-5--5/7-----------------|
E |-0-----0--------------------------0-------------------|


E |---------------guitar-2-------------------------------|
B |------------------------------------------------------|
G |------------------------------------------------------|
D |-7/9-----4---5---4h5-4---4--------7/9-----------------|
A |-5/7-----------------------5------5/7-----------------|
E |-------0---------------------7------------------------|


E |-----------------guitar-1-----------------------------|
B |------------------------------------------------------|
G |------------------------------------------------------|
D |-----4---5---4---7-7---4-------7/9--------------------|
A |-------------------------5-----5/7--------------------|
E |-0-0-----------------------7---0----------------------|

E |-------------guitar-2---------------------------------|
B |------------------------------------------------------|
G |------------------------------------------------------|
D |-----4---5---4---7-7---4-------7/9--------------------|
A |-------------------------2-5---5/7--------------------|
E |-0-0--------------------------------------------------|


E |-----------------guitar-1-----------------------------|
B |------------------------------------------------------|
G |------------------------------------------------------|
D |---4---5---4h5-4---4---------7/9----------------------|
A |---------------------5-2-5---5/7----------------------|
E |-0---------------------------0------------------------|


E |---------------------guitar-2-------------------------|
B |------------------------------------------------------|
G |------------------------------------------------------|
D |---4---5---4h5-4---4---------7/9----------------------|
A |---------------------5-------5/7----------------------|
E |-0---------------------7------------------------------|


E |-------------------guitar-1---------------------------|
B |------------------------------------------------------|
G |------------------------------------------------------|
D |-----4---5---4---7-7---4------------------------------|
A |-------------------------5----------------------------|
E |-0-0-----------------------7-0------------------------|


E |----------------guitar-2------------------------------|
B |------------------------------------------------------|
G |------------------------------------------------------|
D |-----4---5---4---7-7---4------------------------------|
A |-------------------------2-5--------------------------|
E |-0-0-------------------------0------------------------|

E |------------------both guitars------------------------|
B |------------------------------------------------------|
G |-------7-------7---7--------7-------7---7-------------|
D |---9-------9-----9------9-------9-----9---------------|
A |-7---7---7---7--------7---7---7---7-------------------|
E |------------------------------------------------------|


E |-------------------both-guitars-----------------------|
B |------------------------------------------------------|
G |----7---7-7---7---7-7---------------------------------|
D |--9---9--9--9---9--9---9/////////////////-------------|
A |-7-7-7-7---7-7-7-7-----7/////////////////-------------|
E |-----------------------0------------------------------|

To play this last part the best idea would be to slide up one fret at a time and keep
up until the last note
Guide:
~~~~= let ring
P= pull off
H= hammer on
B= bend
/= slide
R= release bend
o o= repeat line
Song info
War Pigs
Black Sabbath
2001
  • Rock
  • Heavy Metal
Alternative tracks
Similar songs
Halls Of Valhalla - Judas Priest
Tomorrows Dream - Black Sabbath
All We Are - Doro
Metal Church - Metal Church
Rainmaker - Iron Maiden

Hi! Hope you enjoy backing track experience.
If you want to help us in the development of the project, feel free to donate!