Call Me - Blondie
00:00 / 00:00
Tabs and lyrics
Tunning: Standard (E A D G B e)
I noticed that there are slim to none tabs of this song on this site so I thought I would add one!
I will also add a bass tab but on a different page as to keep this one from being cluttered.

Note: I will not be using barre chords in this tab as this will be an easier way to play it for beginners
or those who aren't that great with barre chords.

Tuning: Standard

Bpm: 140

Key:
~ Hold chord/note
/ slide up
v Vibreto

Intro:

e|-------------------------------------------------------------------------------------------------------|
B|-------------------------------------------------------------------------------------------------------|
G|---7~~~~~~~~12-10----7~~~~~~~~10-5---5/7-7-7--5/7-7-7--5/7-7-7--12-10--5/7-7-7--5/7-7-7--5/7-7-7--10-5-|
D|---7~~~~~~~~12-10----7~~~~~~~~10-5---5/7-7-7--5/7-7-7--5/7-7-7--12-10--5/7-7-7--5/7-7-7--5/7-7-7--10-5-|
A|-------------------------------------------------------------------------------------------------------|
E|-------------------------------------------------------------------------------------------------------|


Verse:

e|-----------------------------------------------------------------|
B|-----------------------------------------------------------------|
G|---7~~~~~~~~~~~~~~3~~~~~~~~~~~~~~7~~~~~~~~~~~~3~~~~~~~~~~~~~~~~~~|
D|---7~~~~~~~~~~~~~~3~~~~~~~~~~~~~~7~~~~~~~~~~~~3~~~~~~~~~~~~~~~~~~|
A|---5~~~~~~~~~~~~~~1~~~~~~~~~~~~~~5~~~~~~~~~~~~1~~~~~~~~~~~~~~~~~~|
E|-----------------------------------------------------------------|
Color me... Color me... Color me... I know who you are

e|-----------------------------------------------------------------|
B|-----------------------------------------------------------------|
G|-----------------------------------------------------------------|
D|--5~~~~~~~~~~~~~~7~~~~~~~~~~~~~~~5~~~~~~~~~~~7~~~~~~~~~~~~~~~~~~~|
A|--5~~~~~~~~~~~~~~7~~~~~~~~~~~~~~~5~~~~~~~~~~~7~~~~~~~~~~~~~~~~~~~|
E|--3~~~~~~~~~~~~~~5~~~~~~~~~~~~~~~3~~~~~~~~~~~5~~~~~~~~~~~~~~~~~~~|
Come up off.. Color chart.. I know... You're comin' from


Chorus:

e|------------------------------------------------|
B|------------------------------------------------|
G|---7~~~~~~~~---------------------------3~~~~~~~~|
D|---7~~~~~~~~3~~~~~~~~~~~~~~~5~~~~~~~~~~3~~~~~~~~|
A|---5~~~~~~~~3~~~~~~~~~~~~~~~5~~~~~~~~~~1~~~~~~~~|
E|------------1~~~~~~~~~~~~~~~3~~~~~~~~~~---------|
Call me.. the line Call me, call me... anytime

e|--------------------------------------------------------|
B|--------------------------------------------------------|
G|---7~~~~~~~~---------------------3~~~~~~~~~~~~~~~~~~~~~~|
D|---7~~~~~~~~3~~~~~~~~~5~~~~~~~~~~3~~~~~~~~~~~~~~~~~~~~~~|
A|---5~~~~~~~~3~~~~~~~~~5~~~~~~~~~~1~~~~~~~~~~~~~~~~~~~~~~|
E|------------1~~~~~~~~~3~~~~~~~~~~-----------------------|
Call me.. my love... call me.. day or night... Call me


Post-Chorus:

e|-------------------------------------------------------------------|
B|-------------------------------------------------------------------|
G|-5/7-7-7--5/7-7-7--5/7-7-7--12-10--5/7-7-7--5/7-7-7--5/7-7-7--10-5-|
D|-5/7-7-7--5/7-7-7--5/7-7-7--12-10--5/7-7-7--5/7-7-7--5/7-7-7--10-5-|
A|-------------------------------------------------------------------|
E|-------------------------------------------------------------------|


Verse 2:

e|-----------------------------------------------------------------|
B|-----------------------------------------------------------------|
G|---7~~~~~~~~~~~~~~3~~~~~~~~~~~~~~7~~~~~~~~~~~~3~~~~~~~~~~~~~~~~~~|
D|---7~~~~~~~~~~~~~~3~~~~~~~~~~~~~~7~~~~~~~~~~~~3~~~~~~~~~~~~~~~~~~|
A|---5~~~~~~~~~~~~~~1~~~~~~~~~~~~~~5~~~~~~~~~~~~1~~~~~~~~~~~~~~~~~~|
E|-----------------------------------------------------------------|
Cover me... Cover me... Roll me... ..Never get enough

e|-----------------------------------------------------------------|
B|-----------------------------------------------------------------|
G|-----------------------------------------------------------------|
D|--5~~~~~~~~~~~~~~7~~~~~~~~~~~~~~~5~~~~~~~~~~~7~~~~~~~~~~~~~~~~~~~|
A|--5~~~~~~~~~~~~~~7~~~~~~~~~~~~~~~5~~~~~~~~~~~7~~~~~~~~~~~~~~~~~~~|
E|--3~~~~~~~~~~~~~~5~~~~~~~~~~~~~~~3~~~~~~~~~~~5~~~~~~~~~~~~~~~~~~~|
Emotions... Don't know... Cover up... Alibi


Chorus:

e|------------------------------------------------|
B|------------------------------------------------|
G|---7~~~~~~~~---------------------------3~~~~~~~~|
D|---7~~~~~~~~3~~~~~~~~~~~~~~~5~~~~~~~~~~3~~~~~~~~|
A|---5~~~~~~~~3~~~~~~~~~~~~~~~5~~~~~~~~~~1~~~~~~~~|
E|------------1~~~~~~~~~~~~~~~3~~~~~~~~~~---------|
Call me.. the line Call me, call me... anytime

e|------------------------------------------------------------|
B|------------------------------------------------------------|
G|---7~~~~~~~~-------------------------3~~~~~~~~~~~~~~~~~~~~~~|
D|---7~~~~~~~~3~~~~~~~~~5~~~~~~~~~~~~~~3~~~~~~~~~~~~~~~~~~~~~~|
A|---5~~~~~~~~3~~~~~~~~~5~~~~~~~~~~~~~~1~~~~~~~~~~~~~~~~~~~~~~|
E|------------1~~~~~~~~~3~~~~~~~~~~~~~~-----------------------|
Call me.. oh love... When you're.. share the... Call me


Post-Chorus:

e|-----------------------------------------------|
B|-----------------------------------------------|
G|-7~~~~12-10---7/9-9-9--7/9-9-9--7/9-9-9--14-12-|
D|-7~~~~12-10---7/9-9-9--7/9-9-9--7/9-9-9--14-12-|
A|-----------------------------------------------|
E|-----------------------------------------------|

Bridge (same chord progression in Solo)
e|------------------------------------------------------------------------------------------|
B|------------------------------------------------------------------------------------------|
G|-9~~~~~~~~~~~~4~~~~~~~~~~~~~~~-----~9~~~~~~~~4~~~~~~~~~----------------5~~~~~~~~-~~~~~~-~~|
D|-9~~~~~~~~~~~~4~~~~~~~~~0~-~0h2~~~~~9~~~~~~~~4~~~~~~~0~-~0h2-~3~~~~~~~~5~~~~~~~~~~~~~~~~~~|
A|-7~~~~~~~~~~~~2~~~~~0h2~-~2~~~~--~~~7~~~~~~~~2~~~0h2~-~2~~~~~-3~~~~~~~~3~~~~~~~~~~~~~~~~~~|
E|--------------------------------------------------------------1~~~~~~~~-------------------|
Oh, oh... He speaks.... Oh, oh... amore.. Oh, oh.. apelle-moi mon cherie, apelle-moi

e|---------------------------------------------------------------------|
B|---------------------------------------------------------------------|
G|-7~~~~~~~~~~~~~~-----------------------------------------------------|
D|-7~~~~~~~~~~~~~~8~~~~~~~~~5~~~~~~~~~~~7~~~-----------------0----0h2-~|
A|-5~~~~~~~~~~~~~~8~~~~~~~~~5~~~~~~~~~~~7~~~----0---0h2--0h2-~--2------|
E|----------------6~~~~~~~~~3~~~~~~~~~~~5~~~0h3~--3--------------------|
Anytime........ way Anytime... day-ay


Solo:

(Solo is played during a synth solo and they trade off so the bigger gaps indicate synth taking over)

e|--------------------------------------------------------------------------------------------3/8v----|
B|--------------------------------------------------------------------------------------------3-------|
G|------------------9-----9----------9-----9-----9-----9-------------7-----7------7-------------------|
D|-----7-----7--7-9---7-9--------7-9---7-9---7-9---7-9-----------5-7---5-7----5-7---------------------|
A|-5-7---5-7------------------------------------------------------------------------------------------|
E|----------------------------------------------------------------------------------------------------|


Chorus:

e|------------------------------------------------------------------------------------------------|
B|------------------------------------------------------------------------------------------------|
G|---7~~~~~~---------------------------3~~~~~~~~~~~~~~7~~~~~~---------------------------3~~~~~~~~~|
D|---7~~~~~~3~~~~~~~~~~~~~~~5~~~~~~~~~~3~~~~~~~~~~~~~~7~~~~~~3~~~~~~~~~~~~~~~5~~~~~~~~~~3~~~~~~~~~|
A|---5~~~~~~3~~~~~~~~~~~~~~~5~~~~~~~~~~1~~~~~~~~~~~~~~5~~~~~~3~~~~~~~~~~~~~~~5~~~~~~~~~~1~~~~~~~~~|
E|----------1~~~~~~~~~~~~~~~3~~~~~~~~~~----------------------1~~~~~~~~~~~~~~~3~~~~~~~~~~----------|
Call me.. love.. Call me, call me.. Anytime.. Call me... ride.. Call me, call me.. overtime..

e|------------------------------------------------------------------------------------------------|
B|------------------------------------------------------------------------------------------------|
G|---7~~~~~---------------------------3~~~~~~~~~~~~~~~~~~~7~~~~~~~~~---------------------3~~~~~~~~|
D|---7~~~~~3~~~~~~~~~~~~~~~5~~~~~~~~~~3~~~~~~~~~~~~~~~~~~~7~~~~~~~~~3~~~~~~~~~5~~~~~~~~~~3~~~~~~~~|
A|---5~~~~~3~~~~~~~~~~~~~~~5~~~~~~~~~~1~~~~~~~~~~~~~~~~~~~5~~~~~~~~~3~~~~~~~~~5~~~~~~~~~~1~~~~~~~~|
E|---------1~~~~~~~~~~~~~~~3~~~~~~~~~~------------------------------1~~~~~~~~~3~~~~~~~~~~---------|
Call me.. love.. Call me, call me.. sweet design.. Call me.. Call me.. your lover's.. alibi..

e|---------------------------------------------------------------------------------------|
B|---------------------------------------------------------------------------------------|
G|---7~~~~~~----------------------------3~~~~~~~~~~~~~~7~~~~~~--------------------3~~~~~~|
D|---7~~~~~~3~~~~~~~~~~~~~~~5~~~~~~~~~~~3~~~~~~~~~~~~~~7~~~~~~3~~~~~~~~~~~~5~~~~~~3~~~~~~|
A|---5~~~~~~3~~~~~~~~~~~~~~~5~~~~~~~~~~~1~~~~~~~~~~~~~~5~~~~~~3~~~~~~~~~~~~5~~~~~~1~~~~~~|
E|----------1~~~~~~~~~~~~~~~3~~~~~~~~~~~----------------------1~~~~~~~~~~~~3~~~~~~-------|
Call me.. line.. Call me, call me.. Anytime.. Call me.. Ooooh.. Call me.. oh ah..

e|--------------------------------------------------|
B|--------------------------------------------------|
G|---7~~~~~~~~---------------------------3~~~~~~~~7-|
D|---7~~~~~~~~3~~~~~~~~~~~~~~~5~~~~~~~~~~3~~~~~~~~7-|
A|---5~~~~~~~~3~~~~~~~~~~~~~~~5~~~~~~~~~~1~~~~~~~~5-|
E|------------1~~~~~~~~~~~~~~~3~~~~~~~~~~-----------|
Call me... my love Call me, call me... anytime


Well that is about it! I hope you enjoyed and have fun playing an awesome song!
Song info
Call Me
Blondie
2001
  • Rock
  • Stage & Screen
  • New Wave
  • Theme
Alternative tracks
Similar songs
Rapture - Blondie
Never Say Never - Romeo Void
Hawaii Five-O - Ventures
Girl U Want - Devo

Привет! Надеемся, что вам нравиться пользоваться этим сайтом.
Если хотите помочь разработке, то можете пожертвовать нам некоторую сумму на развитие проекта.