Its My Life - Bon Jovi
00:00 / 00:00
Tabs and lyrics
Tunning: Standard (E A D G B e)
name: Greg Meehan

artist: Bon Jovi

SongTitle: Its My Life

Tabs: Its My Life by Bon Jovi
Tabbed By Greg Meehan



Intro:

|------------------|-----------------------|-------------------|-
|------------------|-----------------------|-------------------|-
|--5--5-----------|-----------------------|--5--5------------|---
|--5--5-----------|-----------------------|--5--5------------|--
|--3--3-----------|-----------------------|--3--3------------|--
|------------------|-----------------------|-------------------|-

This ain't a song for the broken hearted

|---------------------------|----------------|-------------------
|---------------------------|----------------|-------------------
|--5-----------------------|----------------|--5--5--x--x--5-----
|--5-----------------------|----------------|--5--5--x--x--5-----
|--3-----------------------|----------------|--3--3--x--x--3-----
|---------------------------|----------------|-------------------

A silent prayer for the faith departed

|---------------------------|----------------|-------------------
|---------------------------|----------------|-------------------
|--5--5--------------------|----------------|--5--5--x--x--5-----
|--5--5--------------------|----------------|--5--5--x--x--5-----
|--3--3--------------------|----------------|--3--3--x--x--3----
|---------------------------|----------------|-------------------

And I ain't gonna be just a face in the crowd, you're gonna

|---------------------------|----------------|
|---------------------------|----------------|
|--5-----------------------|----------------|
|--5--(let chord ring)---|----------------|
|--3-----------------------|----------------|
|--------------------------|----------------|





Hear my voice when I shout it out loud

|--------------------------|----------------|
|--------------------------|----------------|
|---3----------------------|----------------|
|---3----(let chord ring)---|----------------|
|---1-----------------------|----------------|
|-------------------------|----------------|


It's my (C5) life
It's (G#5) now or never
(Eb5) I ain't gonna (Bb5) live forever
(C5) I just wanna (G#5) live when I'm (Bb5) alive
(PLAY RIFF A) It's my (C5) life
My heart is like an (G#5) open highway
(Eb5) Like Frankie said, I (Bb5) did it my way
(C5) I just wanna (G#5) live when I'm (Bb5) alive
It's (PLAY RIFF A) my

life

|------------------|--------------------------|------------------
|------------------|--------------------------|------------------
|--5--5-----------|------------------x--x---|--5--5------------|-
|--5--5-----------|------------------x--x---|--5--5------------|-
|--3--3-----------|------------------x--x---|--3--3------------|-
|------------------|--------------------------|------------------


This is for the one's who stood their ground

|---------------------------|-------------------|----------------
|---------------------------|-------------------|----------------
|--5-----------------------|--------------------|--5--5--x--x--5-
|--5-----------------------|--------------------|--5--5--x--x--5-
|--3-----------------------|--------------------|--3--3--x--x--3-
|---------------------------|-------------------|----------------


For Tommy and Gina, never back down

|---------------------------|----------------|-------------------
|---------------------------|----------------|-------------------
|--5--5--------------------|----------------|--5--5--x--x--5-----
|--5--5--------------------|----------------|--5--5--x--x--5-----
|--3--3--------------------|----------------|--3--3--x--x--3-----
|---------------------------|----------------|-------------------

Tomorrow's getting harder, make no mistake
|--------------------------|----------------|
|--------------------------|----------------|
|--5-----------------------|----------------|
|--5--(let chord ring)---|----------------|
|--3-----------------------|----------------|
|--------------------------|----------------|

Luck ain't even luck, you gotta make your own breaks

|--------------------------|----------------|
|--------------------------|----------------|
|--3-----------------------|----------------|
|--3--(let chord ring)---|----------------|
|--1-----------------------|----------------|
|-------------------------|----------------|


It's my (C5) life
And it's (G#5) now or never
(Eb5) I ain't gonna (Bb5) live forever
(C5) I just wanna (G#5) live when I'm (Bb5) alive
(PLAY RIFF A) It's my (C5) life
My heart is like an (G#5) open highway
(Eb5) Like Frankie said, I (Bb5) did it my way
(C5) I just wanna (G#5) live when I'm (Bb5) alive
'Cause It's (PLAY RIFF A) my life (start of
solo )life.


Solo:
Use a Wah-Wah pedal for this first section, move the pedal with the
bend
|------------------------------------------|---------------------
|------3-bend –with 5------------------|------------------------|
|------------------------------------------|---------------------
|------------------------------------------|---------------------
|------------------------------------------|---------------------
|------------------------------------------|---------------------


|------------------------------|---------------------------------
|----6-----6—-----------4 bend with 6 (four times)--------------
|------3-----------------------|---------------------------------
|--------5---------------------|---------------------------------
|------------------------------|---------------------------------
|------------------------------|---------------------------------


|--------------------------|-------------------------|
|--6-----------------------|------------------------|
|-----3--5----------------|-------------------------|
|--------------------------|-------------1----------|
|--------------------------|-----------1-----1--3--|
|--------------------------|--------3---------------|


Better stand tall when it's calling you out
Don't make no break, baby don't back down (C5 C5)

It's my (C5) life
It's (G#5) now or never
(Eb5) I ain't gonna (Bb5) live forever
(C5) I just wanna (G#5) live when I'm (Bb5) alive
(B note only, 7th fret, 6th string) It's my (C5) life
My heart is like an (G#5) open highway
(Eb5) Like Frankie said, I (Bb5) did it my way
(C5) I just wanna (G#5) live when I'm (Bb5) alive
It's (PLAY RIFF A) my (C5) life


And it's (G#5) now or never
(Eb5) I ain't gonna (Bb5) live forever
(C5) I just wanna (G#5) live when I'm (Bb5) alive
(B note only, 7th fret, 6th string) It's my (C5) life
My heart is like an (G#5) open highway
(Eb5) Like Frankie said, I (Bb5) did it my way
(C5) I just wanna (G#5) live when I'm (Bb5) alive
'Cause it's (PLAY RIFF A) my (C5) life


Below is the Riff A, and Bar chords used through the chorus:

RIFF A

E-----------------------------
B----------------------------
G----------------------------
D----------------------------
A----------------------------
E-------3----------6-----------


C5 Bb5

e-------------------- e-------------------
b-------------------- b-------------------
g--------5----------- g--------3-----------
d--------5------------ D--------3----------
A--------3----------- A--------1----------
E------------------- E------------------


Eb5 G#5

e-------------------- e--------------------
b------------------- b--------------------
g------------------- g----------6----------
D--------8----------- d----------6----------
A--------6----------- A----------4----------
E-------------------- E--------------------
Tunning: Standard (E A D G B e)
[Intro]
e|--------------|
B|--------------|
G|--------13-12-|
D|-10-10--13-12-|
A|-10-10--11-10-|
E|-8--8---------|

[Verse]
e|-----------------------|
B|-----------------------|
G|-----------------13-12-|
D|-10-10-10-10-10--13-12-|
A|-10-10-10-10-10--11-10-|
E|-8--8--8--8--8---------|
PM_____

[Pre-Chorus]
e|----------|
B|----------|
G|-5--------|
D|-5---3----|
A|-3---3----|
E|-----1----|

[Chorus]
e|---------------------------------------------------|
B|---------------------------------------------------|
G|-5-5-5-5-5-5-5-5-5-----------------------8-8-8-8-8-|
D|-5-5-5-5-5-5-5-5-5--6-6-6-6-6-6-6-6-6-6--8-8-8-8-8-|
A|-3-3-3-3-3-3-3-3-3--6-6-6-6-6-6-6-6-6-6--6-6-6-6-6-|
E|--------------------4-4-4-4-4-4-4-4-4-4------------|

e|---------------------------------------------------|
B|---------------------------------------------------|
G|-8-8-8-8-8-------------------5-5-5-5-5-5-5---------|
D|-8-8-8-8-8--8-8-8-8-8-8-8-8--5-5-5-5-5-5-5-6-6-6-6-|
A|-6-6-6-6-6--8-8-8-8-8-8-8-8--3-3-3-3-3-3-3-6-6-6-6-|
E|------------6-6-6-6-6-6-6-6----------------4-4-4-4-|

e|-----------------------------|
B|-----------------------------|
G|---------------------------5-|
D|-6-6-6-6--8-8-8-8-8-8-8-8--5-| X2
A|-6-6-6-6--8-8-8-8-8-8-8-8--3-|
E|-4-4-4-4--6-6-6-6-6-6-6-6----|

[Instrumental]
e|--------------|
B|--------------|
G|--------13-12-|
D|-10-10--13-12-|
A|-10-10--11-10-|
E|-8--8---------|

[Chorus]
e|---------------------------------------------------|
B|---------------------------------------------------|
G|-5-5-5-5-5-5-5-5-5-----------------------8-8-8-8-8-|
D|-5-5-5-5-5-5-5-5-5--6-6-6-6-6-6-6-6-6-6--8-8-8-8-8-|
A|-3-3-3-3-3-3-3-3-3--6-6-6-6-6-6-6-6-6-6--6-6-6-6-6-|
E|--------------------4-4-4-4-4-4-4-4-4-4------------|

e|---------------------------------------------------|
B|---------------------------------------------------|
G|-8-8-8-8-8-------------------5-5-5-5-5-5-5---------|
D|-8-8-8-8-8--8-8-8-8-8-8-8-8--5-5-5-5-5-5-5-6-6-6-6-|
A|-6-6-6-6-6--8-8-8-8-8-8-8-8--3-3-3-3-3-3-3-6-6-6-6-|
E|------------6-6-6-6-6-6-6-6----------------4-4-4-4-|

e|-----------------------------|
B|-----------------------------|
G|---------------------------5-|
D|-6-6-6-6--8-8-8-8-8-8-8-8--5-| X2
A|-6-6-6-6--8-8-8-8-8-8-8-8--3-|
E|-4-4-4-4--6-6-6-6-6-6-6-6----|

[Solo]
e|----------------------------------------------------|
B|----------------------------------------------------|
G|-7-b7-(it's repeated a few times)--5------b10-12(X4)|
D|-------------------------------------8-10-----------|
A|----------------------------------------------------|
E|----------------------------------------------------|

e|-----------------------------|
B|-----------------------------|
G|-10-8-10p8-------------5-----|
D|-----------10------1---5-----|
A|---------------1-3---3-3-----|
E|-----------------------------|

[Chorus]
e|---------------------------------------------------|
B|---------------------------------------------------|
G|-5-5-5-5-5-5-5-5-5-----------------------8-8-8-8-8-|
D|-5-5-5-5-5-5-5-5-5--6-6-6-6-6-6-6-6-6-6--8-8-8-8-8-|
A|-3-3-3-3-3-3-3-3-3--6-6-6-6-6-6-6-6-6-6--6-6-6-6-6-|
E|--------------------4-4-4-4-4-4-4-4-4-4------------|

e|---------------------------------------------------|
B|---------------------------------------------------|
G|-8-8-8-8-8-------------------5-5-5-5-5-5-5---------|
D|-8-8-8-8-8--8-8-8-8-8-8-8-8--5-5-5-5-5-5-5-6-6-6-6-|
A|-6-6-6-6-6--8-8-8-8-8-8-8-8--3-3-3-3-3-3-3-6-6-6-6-|
E|------------6-6-6-6-6-6-6-6----------------4-4-4-4-|

e|-----------------------------|
B|-----------------------------|
G|---------------------------5-|
D|-6-6-6-6--8-8-8-8-8-8-8-8--5-| X2
A|-6-6-6-6--8-8-8-8-8-8-8-8--3-|
E|-4-4-4-4--6-6-6-6-6-6-6-6----|


************************************

| PM Palm mute
| b Bend
| p Pull-off

************************************
Tunning: Nashville (E A D G B E)
Bon Jovi - It's My Life

I believe this song is actually played on a seven-string or a baritone, but I
tabbed it for a standard guitar. If you do have one, play the C power chords low.


[Intro]

E|-----------|-----------|-----------|-----------|
B|-----------|-----------|-----------|-----------|
G|-5--5------|-----------|-5--5------|-----------|
D|-5--5------|-----------|-5--5------|-----------|
A|-3--3------|-----------|-3--3------|-----------|
E|-----------|-----------|-----------|-----------|


[Verse]

E|-----------|-----------|--------------|-----------|
B|-----------|-----------|--------------|-----------|
G|*5-(5)-----|-----------|-5--5-x-x-5-5-|----------*|
D|*5-(5)-----|-----------|-5--5-x-x-5-5-|----------*|
A|-3-(3)-----|-----------|-3--3-x-x-3-3-|-----------|
E|-----------|-----------|--------------|-----------|
(^ play only at the second time)


[Pre-Chorus]

E|-----------|-----------|-----------|-----------|------|
B|-----------|-----------|-----------|-----------|------|
G|-5=========|======-x-x-|-----------|-----------|-rest-|
D|-5=========|======-x-x-|-3--3------|-----------|------|
A|-3=========|======-x-x-|-3--3------|-----------|------|
E|-----------|-----------|-1--1------|-----------|------|


[Chorus]

E|-------------|-------------|-------------|-------------|
B|-------------|-------------|-------------|-------------|
G|*5========-5-|-5========-5-|-8========-8-|-7========-7-|
D|*5========-5-|-6========-6-|-8========-8-|-8========-8-|
A|-3========-3-|-6========-6-|-6========-6-|-5========-5-|
E|-------------|-4========-4-|-------------|-------------|

E|-------------|-------------|-------------|-------------|
B|-------------|-------------|-------------|-------------|
G|-5========-5-|-5==========-|-------------|------------*|
D|-5========-5-|-6==========-|-8==========-|------------*|
A|-3========-3-|-6==========-|-8==========-|-------------|
E|-------------|-4==========-|-6==========-|-6=====7=====|

Repeat INTRO
Repeat VERSE
Repeat PRE-CHORUS, at the end let the F power chord ring
Repeat CHORUS


[Bridge]

1st guitar:
E|---------------|---------------|---------------|
B|---------------|---------------|---------------|
G|*-------------*|*-------------*|*-------------*|
D|*6-6--x-6-6--x*|*8-8--x-8-8--x*|*6-6--x-6-6--x*|
A|-6-6--x-6-6--x-|-8-8--x-8-8--x-|-6-6--x-6-6--x-|
E|-4-4--x-4-4--x-|-6-6--x-6-6--x-|-4-4--x-4-4--x-|

E|---------------|-----------------|
B|---------------|-----------------|
G|---------------|-----------------|
D|-3-3--x-3-3--x-|-3-3-3-3-3-3-3-3-|
A|-3-3--x-3-3--x-|-3-3-3-3-3-3-3-3-|
E|-1-1--x-1-1--x-|-1-1-1-1-1-1-1-1-|
P.M. --==release

2nd guitar(solo):
E|-------------------------------------------------------------------|
B|---------------------------------4-6b8---8-8-8b6p4-6---------------|
G|-7b8b7b8-etc........7b8b7p5----5---------------------3-5~~---------|
D|-----------------------------6---------------------------------1---|
A|-------------------------------------------------------------1---1-|
E|-----------------------------------------------------------3-------|

Both guitars:
E|-----------|-----------|-----------|-----------|-----------|
B|-----------|-----------|-----------|-----------|-----------|
G|-5=========|===========|===========|===========|-5--5------|
D|-5=========|===========|===========|===========|-5--5------|
A|-3=========|===========|===========|===========|-3--3------|
E|-----------|-----------|-----------|-----------|-----------|

Repeat CHORUS 4x



************************************

| x Dead note
| (n) Ghost note
| p Pull-off
| b Bend
| ~ Vibrato
| *
| ==== Let Ring

************************************
Tunning: Standard (E A D G B e)
e|---------------------------------------------------------------------------|
B|-1--------5--6--5--1--1--1--0-------------5--6--5--1--1--1--0--------------|
G|-2------5-------------2-------0--2-----5--------------2--------2-----------|
D|-2---7----------------3-------------7-----------------3--------------------|
A|---------------------------------------------------------------------------|
E|---------------------------------------------------------------------------|


[Verse 1]
Am Em G
This ain't a song for the broken hearted
Am Em G
No silent prayer for the faith departed
Am Em
I ain't gunna be just a face in the crowd
C E
Your gunna hear my voice when I shout it out loud


[Chorus]
Am
It's my life
F C
It's now or never
G Am
I aint gunna live for ever
F C
I just wanna live while I'm alive
Am
It's my life
F C
My heart is like an open highway
G Am
Like Frankie said I did it my way
F G
I just wanna live while I'm alive

It's my life


e|----------------------------------------------------------------------------|
B|-------5--6--5--1--1--1--0--------------------------------------------------|
G|----5--------------2--------2-----------------------------------------------|
D|-7-----------------3--------------------------------------------------------|
A|----------------------------------------------------------------------------|
E|----------------------------------------------------------------------------|

[Verse 2]
Am Em G
This is for ones who stood their ground
Am Em G
For Tommy n Gina who never backed down
Am Em
Tomorrows gettin harder make no mistake
C E
Luck aint even luck you gotta make your own breaks


[Chorus]

GUITAR SOLO:

e|---------------------------------------------------------------------------|
B|---------------------------------------------------------------------------|
G|----------------5--4--2----------------------------------------------------|
D|-7-7-7-7--5-5--------------------------------------------------------------|
A|-7-7-7-7--5-5--------------------------------------------------------------|
E|-5-5-5-5--3-3--------------------------------------------------------------|


[MIDDLE:]
Am Em
Baby stand tall when theyre callin you out
Am Em
Don't bend don't break baby don't back down

[Chorus]

FINALE:

e|---------------------------------------------------------------------------|
B|-----5--6--5--1--1-------5--6--5--1--1-------------------------------------|
G|---5-------------2-----5-------------2-------------------------------------|
D|-7---------------3---7---------------3-------------------------------------|
A|---------------------------------------------------------------------------|
E|---------------------------------------------------------------------------|
Tunning: Standard (E A D G B e)
Title : It's My Life (Acoustic)
Artist : Bon Jovi
Album : This Left Feels Right
Capo : none
Setting : E-A-D-G-B-e
Tabbed by : SR71
-------------------------------------------------

Titel : It's My Life (Acoustic)
Artist : Bon Jovi
Album : This Left Feels Right
===============================================================
Akkords:

Am = x02210
Bm7 = x2023x
D = xx0232
Dm6 = x5320x
Dsus = xx0233
E = 022100
Esus = 022200
C6 = x32210
Fsus2 = xx3011
G = 320003
G/B = x20030

Riff 2
Am
e|----------------|-
B|----------------|-
G|-4--2---4--5----|-
D|-5--3---5--7----|-
A|----------------|-
E|----------------|-



================================================================
INTRO:

Riff1 (2x)
Am
e|--0---------12-13---12-------------------------------|-
B|--1------13-------------13-------13---12-------------|-
G|--2---14--------------------14-------------14--(14)--|-
D|--2--------------------------------------------------|-
A|--0--------------------------------------------------|-
E|-----------------------------------------------------|-


Am Fsus2 G (Riff2)
This is a song for the broken-hearted
Am Fsus2 G (Riff2)
A silent prayer for a faith-departed
Am Bm7
I ain't gonna be just a face in the crowd
C6
You're gonna hear my voice
Dsus D
When I shout it out loud

Esus E Am
It's my life
Fsus2 C
It's now or never
G/B G
I ain't gonna live forever
Am Fsus2 G Am7
I just wanna live while I'm alive
G/B C
It's my life
Fsus2 G Am
My heart is like the open highway
Am G
Like Frankie said "I did it my way"
C Fsus2 G
I just wanna live while I'm alive
Dm6 E Am Riff1
It's my life
Tunning: Standard (E A D G B e)
intro:
e----------43----------43---|
b---------4-----------4-----|
g--5-5--5-----5-5--5--------|
d--5-5-5------5-5-5---------|
a--3-3--------3-3-----------|
e---------------------------|

verse1:
this ain't a song for the broken hearted
e-----------------------------------------------------43---|
b----------------------------------------------------4-----|
g-5------------------------------------------5-5--5--------|
d-5------------------------------------------5-5-5---------|
a-3------------------------------------------3-3-----------|
e----------------------------------------------------------|

a silent prayer for faith departed
e------------------------------------------------------43----|
b-----------------------------------------------------4------|
g-5-5-----------------------------------------5-5--5---------|
d-5-5-----------------------------------------5-5-5----------|
a-3-3-----------------------------------------3-3------------|
e------------------------------------------------------------|
pre chorus:
an I aint gonna be just a face in the crowd
e-----------------------------------------------------|
b-----------------------------------------------------|
g----5------------------------------------------------|
d----5----hold chord ---------------------------------|
a----3------------------------------------------------|
e-----------------------------------------------------|

aint gonna hear my voice when I shout it out loud
e-----------------------------------------------------|
b-----------------------------------------------------|
g-----------------------------------------------------|
d----3--3---------------------------------------------|
a----3--3---------------------------------------------|
e----1--1---------------------------------------------|

chorus:

It's my life, It's now or never, I ain't gonna live forever.

e-------------------------------------------------------------------|
b-------------------------------------------------------------------|
g------5-----------5-------------------------------3------------35--|
d------5-----------56-------------68--------------83------------35--|
a------3-----------36-------------66--------------61------------13--|
e-------------------4-------------4---------------------------------|


I just wanna live when I'm alive
e-----------------------------------------|
b-----------------------------------------|
g-----------5----------------3------------|
d-----------56--------------63------------|
a-----------36--------------61------------|
e------------4--------------4-------------|

It’s my life

e --------------|
g --------------|
b 3--4--5-------|
d 3--4--5-------|
a 1--2--3-------|
e --------------|

repeat chorus but to the words:

my heart is like an open highway
I frickin’ said I did it my way
I just wanna live while I’m alive
It’s my life

Pre verse:
e-----------43------------43---|
b---------4--------------4-----|
g--5-5--5----------5-5--5------|
d--5-5-5-----------5-5-5-------|
a--3-3-------------3-3---------|
e------------------------------|

verse 2:

this is for ones who stood their ground
e-----------------------------------------------------43----|
b----------------------------------------------------4------|
g-5-5-----------------------------------------5-5--5--------|
d-5-5-----------------------------------------5-5-5---------|
a-3-3-----------------------------------------3-3-----------|
e-----------------------------------------------------------|

for Tommy and Gina knelt back down
e------------------------------------------------------43----|
b----------------------------------------------------4-------|
g-5-5-----------------------------------------5-5--5---------|
d-5-5-----------------------------------------5-5-5----------|
a-3-3-----------------------------------------3-3------------|
e------------------------------------------------------------|

pre chorus:

tomorrows getting harder make no mistake
e-----------------------------------------------------|
b-----------------------------------------------------|
g----5------------------------------------------------|
d----5----hold chord ---------------------------------|
a----3------------------------------------------------|
e-----------------------------------------------------|

lookin in and lookin out you gotta make your own breaks
e-----------------------------------------------------|
b-----------------------------------------------------|
g-----------------------------------------------------|
d----3------------------------------------------------|
a----3----hold chord----------------------------------|
e----1------------------------------------------------|

chorus:

it’s my life
an its now or never
I ain’t gonna live forever
I just wanna live by my own light
Cos it’s my life
my heart is like an open highway
I frickin’ said I did it my way
I just wanna live while I’m alive
It’s my life

Solo:

I have not yet tabbed the solo I while leave it for pros

Outro:

Better stand tall when it's calling you out
e----------------------------------------------|
b----------------------------------------------|
g---5------------------------------------------|
d---5------------------------------------------|
a---3------------------------------------------|
e----------------------------------------------|

Don't make no break, but don't back down
e---------------------------------------------|
b---------------------------------------------|
g------------------------------------------55-|
d----3-------------------------------------55-|
a----3-------------------------------------33-|
e----1----------------------------------------|


chorus:


it’s my life
an its now or never
I ain’t gonna live forever
I just wanna live by my own light
Cos it’s my life
my heart is like an open highway
I frickin’ said I did it my way
I just wanna live while I’m alive
It’s my life

it’s my life
an its now or never
I ain’t gonna live forever
I just wanna live by my own light
Cos it’s my life
my heart is like an open highway
I frickin’ said I did it my way
I just wanna live while I’m alive
It’s my life


this is my tab please say any corrections
Tunning: Standard (E A D G B e)
The sequencing will be at the bottom along with the legend.

[Verse]
This aint a song...
e|-------------------------------------------------------------------|
B|-------------------------------------------------------------------|
G|-------------------------------------------------------------------|
D|-10-10----10-10-----------------------10---------10-10---10--------|
A|-10-10----10-10-----------------------10---------10-10---10--------|
E|-8--8-----8--8------------------------8----------8--8----8---------|
(TALKBOX)
(rest during lyrics)

[Pre-chorus 1]
A silent prayer... I aint gonna be... Your gonna hear...
e|-------------------------------------------------------------------|
B|-------------------------------------------------------------------|
G|-----------------------------------------5-------------------------|
D|-10-10----------------10-10-----10-------5-------3-----------------|
A|-10-10----------------10-10-----10-------3-------3-----------------|
E|-8--8-----------------8--8------8----------------1-----------------|
( T A L K B O X ) (No talkbox)

Guitar 1&2

[Chorus 1]
Shout it...(pause) Its My Life... My heart is like...
e|---------------------------------------------------------------------|
B|---------------------------------------------------------------------|
G|----5-5--------55555555----------88888888----------55555555----------|
D|----5-5--------55555555-66666666-88888888-88888888-55555555-66666666-|
A|----3-3--------33333333-66666666-66666666-88888888-33333333-66666666-|
E|------------------------44444444----------66666666----------44444444-|

Guitar 2

e|--------------------------------------------------------------------|
B|--------------------------------------------------------------------|
G|--------------------------------------------------------------------|
D|-88888888-----------------------------------------------------------|
A|-88888888-----------------------------------------------------------|
E|-66666666-----------------------------------------------------------|

Guitar 1

e|---------------------------------------------------------------------|
B|---------------------------------------------------------------------|
G|---------------------------------------------------------------------|
D|-88888888------------------------------------------------------------|
A|-88888888------------------------------------------------------------|
E|-66666666--3~-6~-----------------------------------------------------|


[Solo]
Guitar 1

e|--------------------------------------------------------------------------|
B|--------------------------------------------------------------------------|
G|-7b~(repeat)-5-------8-10b12-12-12-12-12rb10~-8h10p8----10----------------|
D|----------------8-10---------------------------------10--------------1----|
A|-----------------------------------------------------------------1-3---3~-|
E|--------------------------------------------------------------------------|
( T A L K B O X)

Guitar 2
e|---------------------------------------------------------------------------|
B|---------------------------------------------------------------------------|
G|---------------------------------------------------------5-----------------|
D|-55555555-77777777-33333333333333333-5555555555555555----5-----------------|
A|-55555555-77777777-33333333333333333-5555555555555555----3-----------------|
E|-33333333-55555555-11111111111111111-3333333333333333----------------------|
pm_________________


Guitar 1&2

[Pre-Chorus 2]

[Chorus 2]
Its My Life... My heart is...
e|-------------------------------------------------------------------------|
B|-------------------------------------------------------------------------|
G|-5-5---------55555555----------88888888----------55555555----------------|
D|-5-5---------55555555-66666666-88888888-88888888-55555555-66666666-------|
A|-3-3---------33333333-66666666-66666666-88888888-33333333-66666666-------|
E|----------------------44444444----------66666666----------44444444-------|

Guitar 2

e|---------|
B|---------|
G|---------|
D|-88888888|
A|-88888888|
E|-66666666|

Guitar 1

e|----------------|
B|----------------|
G|----------------|
D|-88888888-------|
A|-88888888---3*--|
E|-66666666-------|


[Verse]
[Pre-Chorus 1]
[Chorus 1] x2
[Verse]
[Chorus 1]x2
[Solo]
[Pre-Chorus 2]
[Chorus 2]x4


************************************

| pm___ palm mute
| 3~ vibrato
| h hammer on
| p pull off
| 3* pinch harmonic

************************************
Tunning: Drop C (C G C F A D)
It's My Life
by Jon Bon Jovi

Tuning: Drop C

Note: I hadn't seen any correct tabs for this song, cause in most tabs the
opening chord is played in octave higher when in standard tuning. Upon
listening to the song, the talkbox is a low C, and then i realized the chords
follow suit. It pretty sure it's 100% right.


Intro:
D|------------------------------------------------------------|
A|-----------------10--11---10------------------10--11---10---|
F|--------------10---------------------------10---------------|
C|-0---0-----12-----------------0---0-----12------------------|
G|-0---0------------------------0---0-------------------------|
C|-0---0------------------------0---0-------------------------|

Verse: 2x
D|---------------------------------------------------|
A|-------------------------------------------11--10--|
F|-------------------------------------------x---x---|
C|-0--------------------------0---0-------0--8---7---|
G|-0--------------------------0---0-------0----------|
C|-0--------------------------0---0-------0----------|
“This ain’t a song...”
“No silent prayer....”

Pre-Chorus
D|-----------------------------------------------------------------|
A|-----------------------------------------------------------------|
F|-------------------------------------7~---7----------------------|
C|-0~----------------------------------7~---7----------------------|
G|-0~----------------------------------5~---5----------------------|
C|-0~--------------------------------------------------------------|
“I ain’t gonna...” “Your gonna hear...”

Chorus: 2x
D|---------------------------------------------------------------------------|
A|---------------------------------------------------------------------------|
F|---------7-7-7-7-7-7-7-7-----------------1010101010101010-9-9-9-9-9-9-9-9--|
C|---------7-7-7-7-7-7-7-7-8-8-8-8-8-8-8-8-1010101010101010-1010101010101010-|
G|---------5-5-5-5-5-5-5-5-8-8-8-8-8-8-8-8-8-8-8-8-8-8-8-8--7-7-7-7-7-7-7-7--|
C|---------0-0-0-0-0-0-0-0-8-8-8-8-8-8-8-8-----------------------------------|
“It’s my Life.....”

D|----------------------------------------------------------------|
A|----------------------------------------------------------------|
F|-7-7-7-7-7-7-7-7-10101010101010101010101010101010---------------|
C|-7-7-7-7-7-7-7-7-8-8-8-8-8-8-8-8-1010101010101010---------------|
G|-5-5-5-5-5-5-5-5-8-8-8-8-8-8-8-8-8-8-8-8-8-8-8-8--3~------4~----|
C|-0-0-0-0-0-0-0-0-8-8-8-8-8-8-8-8--------------------------------|
“I just wanna live...” “It’s....My...”

Repeat Intro

Repeat Verse

2nd Pre-Chorus
D|-----------------------------------------------------------------|
A|-----------------------------------------------------------------|
F|-------------------------------------7~--------------------------|
C|-0~----------------------------------7~--------------------------|
G|-0~----------------------------------5~--------------------------|
C|-0~--------------------------------------------------------------|
“Tomorrow’s gettin...” “Luck ain’t even...”

Repeat Chorus

Solo
D|-----------------------------------------------------------------|
A|-----------------------------------------------------------------|
F|-----------------------------------------------------------------|
C|-----------------------------------------------------------------|
G|-7-7b(8)-7-7b(8)-7-7b(8)-7-7b(8)-7-7b(8)-7-7b(8)-7-7b(8)-7-7b(8)-|
C|-----------------------------------------------------------------|

D|-----------------------------------------------------------------|
A|-----------------------------------------------------------------|
F|-----------------------------------------------------------------|
C|-----------------------------------------------------------------|
G|-7-7b(8)-7-7b(8)-7-7b(8)-7-7b(8)-7-7b(8)-7-7b(8)-7-7b(8)-7\5-----|
C|-----------------------------------------------------------------|

D|-------------------------------------------------------------------|
A|-------------------------------------------------------------------|
F|---10-12b(14)~----12b(14)-12b(14)-12b(14)--d(12)-12-12-12----------|
C|-7--------------------------------------------------------10-12~---|
G|-------------------------------------------------------------------|
C|-------------------------------------------------------------------|

D|------------------------------------------------------------------|
A|------------------------------------------------------------------|
F|------------------------------------------------------------------|
C|-----3---0~-------------------------------------------------------|
G|-3-5---5-0~-------------------------------------------------------|
C|---------0~-------------------------------------------------------|

Final Chorus 2x
D|--------|--------------------------------------------------------------------|
A|--------|--------------------------------------------------------------------|
F|--------|-----------------------------------------10~--------------9~--------|
C|-0---0--|---------0~--------------8~--------------10~----------101010~-------|
G|-0---0--|---------0~----------8-8-8~--------------8~-----------8-7-7~--------|
C|-0---0--|---------0~----------8-8-8~-----------------------------------------|
“It’s My Life....” PM| - -

D|------------------------------------------------------------|
A|------------------------------------------------------------|
F|---------------------------------10~------------------------|
C|-0~--------------8~--------------10~------------------------|
G|-0~----------8-8-8~--------------8~-----------3~------4~----|
C|-0~----------8-8-8~-----------------------------------------|
PM| "It's....My...."

Key
----
PM - Palm Mute
b - Bend Up
d - Bend Down
~ - Hold Note
x - Mute Note





And Yer Done.
*please rate*
Song info
Its My Life
Bon Jovi
2001
  • Rock
  • Pop Rock
Alternative tracks
Similar songs
Allumer Le Feu - Johnny Hallyday
Let Me Entertain You - Robbie Williams
Viva la Vida - Coldplay
Its Been Awhile - Staind

Hi! Hope you enjoy backing track experience.
If you want to help us in the development of the project, feel free to donate!