Trashed Lost And Strungout - Children of Bodom
00:00 / 00:00
Tabs and lyrics
Tunning: Standard (E A D G B e)
Children of Bodom
Trashed, Lost and Strungout
Tabbed by Kevin Cruz

Tune all Strings down one whole step
Then tune the D string (after tuned) down another step
The Tunning should look like this : C G C F A D
Intro
|------------------------------------------------------------------|
|------------------------------------------------------------------|
|------------------------------------------------------------------|
|------------------------------------------------------------------|
|------------------------------------------------------------------|
|-0000-0-0000-0-0000-0-0-0000-0-0-0000-0-0000-0-0000-0-0-0000-12\0-|

|-------------------------|----------------------------|
|-------------------------|----------------------------|
|----------------------15-|-14---------14-13--------12-|
|-15--12--0-14-0-12-15----|-----12--15--------12--14---|
|-------------------------|----------------------------|
|-------------------------|----------------------------|

|-------------------------|----------------------------|
|-------------------------|----------------------------|
|----------------------15-|-14---------12-----14--1312-|
|-15--12--0-14-0-12-15----|-----12--14----15-----------|
|-------------------------|----------------------------|
|-------------------------|----------------------------|

Pre-Chorus
|-------------------------|-------------------------|
|----------------------14-|-------------------------|
|-14-11----13-------11----|-11-------14-13-11----13-| 4x.
|-------11----14-11-------|----11-12----------14----|
|-------------------------|-------------------------|
|-------------------------|-------------------------|

N.H.

|--|-----------------|---------------|-----------------|---------------|
|------|-----------------|---------------|-----------------|---------------|
|------|-----------------|---------------|-----------------|---------------|
|------|-----------------|---------------|-----------------|---------------|
|------|-----------------|---------------|-3p2-2-3p2-2-3p2-|-3p2-6p5-3p2-1-|
|------|-3p2-2-3p2-2-3p2-|-3p2-6p5-3p2-1-|-3p2-2-3p2-2-3p2-|-3p2-6p5-3p2-1-|

Verse 1
|----------------|-----------------|----------------|---------------|
|----------------|-----------------|----------------|---------------|
|----------------|-------------N.H.|----------------|---------------|
|----------------|--------------|-----7--------5-|---7-5---5-7---| 2x.
|-----0------1p0-|-----2/3------|-----5--------3-|-x-----8-----0-|
|-0-0-0--0-0-1p0-|-0-0-2/3--0-0----|-0-0-0--0-0-0---|-------------0-|
. . . . . . . . . . . . .

Bridge
|-------------|-------------|-----------------|-----------------|
|-------------|-------------|-----------------|-----------------|
|-5----5----5-|---5----5--6-|-----------------|-0-0-5-0-2-2-5-2-|
|-5--x-5--x-5-|-x-5--x-5--6-|-7-7-3-3-7-7-3-3-|-----------------|
|-3--x-3--x-3-|-x-3--x-3--4-|-----------------|-----------------|
|-------------|-------------|-----------------|-----------------|
. . . . . . . .

|-------------|-------------|-----------------|-----------|
|------A.H.---|-------------|-----------------|-----------|
|-5------5-|---5----5--6-|-----------------|-----------|
|-5---------5-|---5----5--6-|-----------------|-7---------|
|-3---------3-|---3----3--4-|-5---5---4---4---|-5------x\-|
|-------------|-------------|---0---0---0---0-|--------x\-|
. . . .

Verse 1 (2x)
Bridge 6/8

|-----------------------------------------------------------------|
|-----------------------------------------------------------------|
|-----------------------------------------------------------------|
|---------------------------------4---4---2---2---7---7---6---6---|
|-5---5---4---4---8---8---8---7-----------------------------------|
|---0---0---0---0---0---0---0---0---0---0---0---0---0---0---0---0-|
. . . . . . . . . . . . . . . .

Interlude
|------------------------|-------------------------|------------------------|
|---------------------17-|-------------------------|---------------------17-|
|-17-14----16-------14---|-14-------17-16-14----16-|-17-14----16-------14---|
|-------14----17-14------|----14-15----------17----|-------14----17-14------|
|------------------------|-------------------------|------------------------|
|------------------------|-------------------------|------------------------|

1. 2. A.H.---->
|-------------------------| |-------------17b--17b--|
|-------------------------| |-------15-17-----------|
|-14-------17-16-14----16-| |-14-17-----------------|
|----14-15----------17----| |-----------------------|
|-------------------------| |-----------------------|
|-------------------------| |-----------------------|

---Keyboard Solo---

Verse 1 (2x)

Chorus
|-----------------|-----------------|-----------------|-----------------|
|-----------------|-----------------|-----------------|-----------------|
|-----------------|-----------------|-----------------|-----------------|
|-2-2-2-2-5-5-5-5-|-----------------|-2-2-2-2---------|-----------------|
|-0-0-0-0-3-3-3-3-|-3-3-3-3-5-5-5-5-|-0-0-0-0-5-5-5-5-|-3-3-3-3-2-2-2-2-|
|-----------------|-3-3-3-3-5-5-5-5-|---------5-5-5-5-|-3-3-3-3-2-2-2-2-|

Before Guitar Solo
|-----------------|-----------------|-----------------|-----------------|
|---------------7-|-----------------|---------------7-|-----------------|
|-7-4---6-----4---|-4-----7-6-4---6-|-7-4---6-----4---|-4-----7-6-4---6-|
|-----4---7-4-----|---4-5-------7---|-----4---7-4-----|---4-5-------7---|
|-----------------|-----------------|-----------------|-----------------|
|-----------------|-----------------|-----------------|-----------------|

Guitar Solo N.H.
|----------9b-b-b-|-----------------7-|-12-11911-12-9149-12-11911-12-9149-|
|-N.H.-0~~--------|-------------7910--|-----------------------------------|
|--7b-------------|-------468689------|-----------------------------------|
|-----------------|----467------------|-----------------------------------|
|-----------------|-467---------------|-----------------------------------|
|-----------------|-------------------|-----------------------------------|

N.H.---------->
|-----------|-242220----------------------------------------|
|-----------|-------242220----------------------------------|
|-----------------|-------------211917----------------------------|
|-----------------|-------------------211917-------------A.H.-----|
|-----------------|-------------------------191720191715--15------|
|-----------------|------------------------------------------12\--|

|---17-------171522\-|-1513171513---------------------|
|-15--1813/15--------|---------171513-----------------|
|--------------------|---------------1210141210-------|
|--------------------|-------------------------141210-|
|--------------------|--------------------------------|
|--------------------|--------------------------------|

|-------------------------|--------------------------|
|-------1110131011--------|--------------------------|
|-101412----------12109---|-14-----------------------|
|----------------------12-|---171514171514----1514---|
|-------------------------|---------------1715----17-|
|-------------------------|--------------------------|

|---------12h15t20p15p12----------12h15t20-|-p15t20p1512h15p12\1012101210\8-|
|-------13--------------13------13---------|--------------------------------|
|-----12------------------12--12-----------|--------------------------------|
|---14----------------------14-------------|--------------------------------|
|-15---------------------------------------|--------------------------------|
|------------------------------------------|--------------------------------|

|----------------|---------171615----|
|-10---13---15---|-18----15------18\-|
|-12b--15b--17b--|---1417------------|
|----------------|-------------------|
|----------------|-------------------|
|----------------|-------------------|

And thats all u need to know
Tunning: Standard (E A D G B e)
Children of Bodom
Trashed, Lost and Strung out
Tabbed by Nate Pritchett

The Tuning should look like this : C G C F A D

Intro
|------------------------------------------------------------------|
|------------------------------------------------------------------|
|------------------------------------------------------------------|
|------------------------------------------------------------------|
|------------------------------------------------------------------|
|-0000-0-0000-0-0000-0-0-0000-0-0-0000-0-0000-0-0000-0-0-0000-12\0-|

|----------------------------|
|----------------------------|
|----------------------------| X8
|--------8-7-------7-6-------|
|8-5-7-8-----5-7-8-----5-7---|
|----------------------------|

Pre-Chorus
|-------------------------|-------------------------|
|----------------------14-|-------------------------|
|-14-11----13-------11----|-11-------14-13-11----13-| 4x.
|-------11----14-11-------|----11-12----------14----|
|-------------------------|-------------------------|
|-------------------------|-------------------------|

N.H.
|------|-----------------|---------------|-----------------|---------------|
|------|-----------------|---------------|-----------------|---------------|
|------|-----------------|---------------|-----------------|---------------|
|------|-----------------|---------------|-----------------|---------------|
|------|-----------------|---------------|-3p2-2-3p2-2-3p2-|-3p2-6p5-3p2-1-|
|------|-3p2-2-3p2-2-3p2-|-3p2-6p5-3p2-1-|-3p2-2-3p2-2-3p2-|-3p2-6p5-3p2-1-|

Verse 1
|----------------|-----------------|----------------|---------------|
|----------------|-----------------|----------------|---------------|
|----------------|-------------N.H.|----------------|---------------|
|----------------|-----------------|-----7--------5-|---7-5---5-7---| 2x.
|-----0------1p0-|-----2/3---------|-----5--------3-|-x-----8-----0-|
|-0-0-0--0-0-1p0-|-0-0-2/3--0-0----|-0-0-0--0-0-0---|-------------0-|
. . . . . . . . . . . . .

Bridge
|-------------|-------------|-----------------|-----------------|
|-------------|-------------|-----------------|-----------------|
|-5----5----5-|---5----5--6-|-----------------|-0-0-5-0-2-2-5-2-|
|-5--x-5--x-5-|-x-5--x-5--6-|-7-7-3-3-7-7-3-3-|-----------------|
|-3--x-3--x-3-|-x-3--x-3--4-|-----------------|-----------------|
|-------------|-------------|-----------------|-----------------|
. . . . . . . .

|-------------|-------------|-----------------|-----------|
|------A.H.---|-------------|-----------------|-----------|
|-5---------5-|---5----5--6-|-----------------|-----------|
|-5---------5-|---5----5--6-|-----------------|-7---------|
|-3---------3-|---3----3--4-|-5---5---4---4---|-5------x\-|
|-------------|-------------|---0---0---0---0-|--------x\-|
. . . .

Verse 1 (2x)
Bridge 6/8

|-----------------------------------------------------------------|
|-----------------------------------------------------------------|
|-----------------------------------------------------------------|
|---------------------------------4---4---6---6---7---7---9---9---|
|-5---5---4---4---8---8---8---7-----------------------------------|
|---0---0---0---0---0---0---0---0---0---0---0---0---0---0---0---0-|
. . . . . . . . . . . . . . . .

Interlude
|------------------------|-------------------------|------------------------|
|---------------------17-|-------------------------|---------------------17-|
|-17-14----16-------14---|-14-------17-16-14----16-|-17-14----16-------14---|
|-------14----17-14------|----14-15----------17----|-------14----17-14------|
|------------------------|-------------------------|------------------------|
|------------------------|-------------------------|------------------------|

1. 2. A.H.---->
|-------------------------| |-------------17b--17b--|
|-------------------------| |-------15-17-----------|
|-14-------17-16-14----16-| |-14-17-----------------|
|----14-15----------17----| |-----------------------|
|-------------------------| |-----------------------|
|-------------------------| |-----------------------|

---Keyboard Solo---

Verse 1 (2x)

Chorus
|-----------------|-----------------|-----------------|-----------------|
|-----------------|-----------------|-----------------|-----------------|
|-----------------|-----------------|-----------------|-----------------|
|-2-2-2-2-5-5-5-5-|-----------------|-2-2-2-2---------|-----------------|
|-0-0-0-0-3-3-3-3-|-3-3-3-3-5-5-5-5-|-0-0-0-0-5-5-5-5-|-3-3-3-3-2-2-2-2-|
|-----------------|-3-3-3-3-5-5-5-5-|---------5-5-5-5-|-3-3-3-3-2-2-2-2-|

Before Guitar Solo
|-----------------|-----------------|-----------------|-----------------|
|---------------7-|-----------------|---------------7-|-----------------|
|-7-4---6-----4---|-4-----7-6-4---6-|-7-4---6-----4---|-4-----7-6-4---6-|
|-----4---7-4-----|---4-5-------7---|-----4---7-4-----|---4-5-------7---|
|-----------------|-----------------|-----------------|-----------------|
|-----------------|-----------------|-----------------|-----------------|

Guitar Solo N.H.
|----------9b-b-b-|-----------------7-|-12-11911-12-9149-12-11911-12-9149-|
|-N.H.-0~~--------|-------------7910--|-----------------------------------|
|--7b-------------|-------468689------|-----------------------------------|
|-----------------|----467------------|-----------------------------------|
|-----------------|-467---------------|-----------------------------------|
|-----------------|-------------------|-----------------------------------|







N.H.---------->
|-----------------|-242220----------------------------------------|
|-----------------|-------242220----------------------------------|
|-----------------|-------------211917----------------------------|
|-----------------|-------------------211917-------------A.H.-----|
|-----------------|-------------------------191720191715--15------|
|-----------------|------------------------------------------12\--|

|---17-------171522\-|-1513171513---------------------|
|-15--1813/15--------|---------171513-----------------|
|--------------------|---------------1210141210-------|
|--------------------|-------------------------141210-|
|--------------------|--------------------------------|
|--------------------|--------------------------------|

|-------------------------|--------------------------|
|-------1110131011--------|--------------------------|
|-101412----------12109---|-14-----------------------|
|----------------------12-|---171514171514----1514---|
|-------------------------|---------------1715----17-|
|-------------------------|--------------------------|

|---------12h15t20p15p12----------12h15t20-|-p15t20p1512h15p12\1012101210\8-|
|-------13--------------13------13---------|--------------------------------|
|-----12------------------12--12-----------|--------------------------------|
|---14----------------------14-------------|--------------------------------|
|-15---------------------------------------|--------------------------------|
|------------------------------------------|--------------------------------|

|----------------|---------171615----|
|-10---13---15---|-18----15------18\-|
|-12b--15b--17b--|---1417------------|
|----------------|-------------------|
|----------------|-------------------|

|----------------|-----------------|----------------|---------------|
|----------------|-----------------|----------------|---------------|
|----------------|-----------------|----------------|---------------|
|-5--6—-7--------|--7-5---5-7--7-5-|-5-7------------|---------------|
|-3--4—-5--------|------8---------8|----------------|---------------|
|----------------|-----------------|----------------|---------------|

|-------------|-------------|-----------------|-----------------|
|-------------|-------------|-----------------|-----------------|
|-5----5----5-|---5----5--6-|-----------------|-0-0-5-0-2-2-5-2-|
|-5--x-5--x-5-|-x-5--x-5--6-|-7-7-3-3-7-7-3-3-|-----------------| X3
|-3--x-3--x-3-|-x-3--x-3--4-|-----------------|-----------------|
|-------------|-------------|-----------------|-----------------|


|-----------------------------------------------------------------|
|-----------------------------------------------------------------|
|-----------------------------------------------------------------|
|-5--6--7--8------------------------------------------------------|
|-3--4--5--6------------------------------------------------------|
|-----------------------------------------------------------------|

|-----------------------------------------------------------------|
|-----------------------------------------------------------------|
|-----------------------------------------------------------------|
|-----------------------------------------------------------------|
|-5---5---4---4---8---8---8---7-----------------------------------|
|---0---0---0---0---0---0---0---0---0---0---0---0---0---0---0---0-|
|-----------------------------------------------------------------|
|-----------------------------------------------------------------|
|-----------------------------------------------------------------|
|-----------------------------5--7---7--5----7--------------------|
|-5---5---4---4-------------8------8------8-----------------------|
|---0---0---0---0---0---------------------------------------------|

|-----------------------------------------------------------------|
|-----------------------------------------------------------------|
|-----------------------------------------------------------------|
|---------------------------------4---4---6---6---7---7---9---9---|
|-5---5---4---4---8---8---8---7-----------------------------------|
|---0---0---0---0---0---0---0---0---0---0---0---0---0---0---0---0-|


Chorus
|-----------------|-----------------|-----------------|-----------------|
|-----------------|-----------------|-----------------|-----------------|
|-----------------|-----------------|-----------------|-----------------|
|-2-2-2-2-5-5-5-5-|-----------------|-2-2-2-2---------|-----------------|
|-0-0-0-0-3-3-3-3-|-3-3-3-3-5-5-5-5-|-0-0-0-0-5-5-5-5-|-3-3-3-3-2-2-2-2-|
|-----------------|-3-3-3-3-5-5-5-5-|---------5-5-5-5-|-3-3-3-3-2-2-2-2-|

|-----------------|-----------------|-----------------|-----------------|
|-----------------|-----------------|-----------------|-----------------|
|-----------------|-----------------|-----------------|-----------------|
|-2-2-2-2-5-5-5-5-|-----------------|-2-2-2-2---------|-----------------|
|-0-0-0-0-3-3-3-3-|-3-3-3-3-5-5-5-5-|-0-0-0-0-5-5-5-5-|-3-3-3-3-2-2-2-2-|
|-----------------|-3-3-3-3-5-5-5-5-|---------5-5-5-5-|-3-3-3-3-2-2-2-2-|

|-----------------|-----------------|-----------------|-----------------|
|-----------------|-----------------|-----------------|-----------------|
|-----------------|-----------------|-----------------|-----------------|
|-2-2-2-2-5-5-5-5-|-----------------|-2-2-2-2---------|-----------------|
|-0-0-0-0-3-3-3-3-|-3-3-3-3-5-5-5-5-|-0-0-0-0-5-5-5-5-|-3-3-3-3-2-2-2-2-|
|-----------------|-3-3-3-3-5-5-5-5-|---------5-5-5-5-|-3-3-3-3-2-2-2-2-|

|-----------------|-----------------|-----------------|-----------------|
|-----------------|-----------------|-----------------|-----------------|
|-----------------|-----------------|-----------------|-----------------|
|-2-2-2-2-5-5-5-5-|-----------------|-2-2-2-2---------|-----------------|
|-0-0-0-0-3-3-3-3-|-3-3-3-3-5-5-5-5-|-0-0-0-0-5-5-5-5-|-3-3-3-3-2-2-2-2-|
|-----------------|-3-3-3-3-5-5-5-5-|---------5-5-5-5-|-3-3-3-3-2-2-2-2-|

|------------------------------------------------------------------|
|------------------------------------------------------------------|
|------------------------------------------------------------------|
|------------------------------------------------------------------|
|------------------------------------------------------------------|
|-0000-0-0000-0-0000-0-0-0000-0-0-0000-0-0000-0-0000-0-0-0000-12b--|
Played alternately ^
End on
Tunning: Drop C (C G C F A D)
Trashed, Lost and Strungout-Children of Bodom
Album: Are you dead yet?
All music written by Alexi Laiho

Lead Guitar: Alexi Laiho
Rhythm Guitar: Roope Latvala
Synthesizers: Janne Warman


DROP C TUNING

INTRO

Listen to the song to get where every thing comes in

Rhythm Intro pt.1 Pretty easy, just really fast
D|--------------------------------|----------------------------------|x3
A|--------------------------------|----------------------------------|
F|--------------------------------|----------------------------------|
C|--------------------------------|----------------------------------|
G|--------------------------------|----------------------------------|
C|-0000-0-0000-0-0000-0-0-0000-0-0|-0000-0-0000-0-0000-0-0-0000-0-0--|


Lead Intro. This is the hardest part of the song other than the solo its extremely
to finger and it took me almost 15 minutes to get the notes right but it’s the only exact
I’ve seen of it. It might take a long time to get it under your fingers. Practice is the key here.
||---------------------------------||----------------------------------||x4
||---------------------------------||----------------------------------||
||o--------------------------------||---------------------------------o||
||o----------8----8-7----7-6----6--||----------8----8-7----7-6-7-6-5--o||
||---5-8---7--5-7----5-7-----5-7---||--5-8---7--5-7----5-7-------------||
||-------0-------------------------||------0---------------------------||


Rhythm Intro pt.2 Simple whole notes and a little lick at the end to match the lead
||---------------|------------------||x2
||---------------|------------------||
||o--------------|-----------------o||
||o-0------2-----|0-----2--6-7-6-5-o||
||--0------2-----|0-----2-----------||
||--0------2-----|0-----2-----------||

Melody

Here’s the first of three variations for the melody

Lead Guitar and Synthesizer .Extremely melodic. Try to play it as connected as possible
overlapping notes
|---------------------------|-------------------------|x4
|---------------------------|-------------------------|
|-14-11----13-------11------|-11------11--13------13--|
|-------11----14-11----11---|------12----------14-----|
|---------------------------|---12----------14--------|
|---------------------------|-------------------------|


Rhythm Guitar .Punk Rock sounding harmony for the melody
|---------------------------|-------------------------|
|---------------------------|-------------------------|
|---------------------------|-------------------------|
|-4--------2--------4-------|-0-----------2-----------|
|-4--------2--------4-------|-0-----------2-----------|
|-4--------2--------4-------|-0-----------2-----------|

Break Down

Rhythm Guitar plays the first time then Lead Guitar jumps in for the second time
Rhythm Guitar
|-----------------|-----------------|-----------------|-----------------|
|-----------------|-----------------|-----------------|-----------------|
|-----------------|-----------------|-----------------|-----------------|
|-----------------|-----------------|-----------------|-----------------|
|-----------------|-----------------|-3p2-2-3p2-2-3p2-|-3p2-6p5-3p2-1-1-|
|-3p2-2-3p2-2-3p2-|-3p2-6p5-3p2-1-1-|-3p2-2-3p2-2-3p2-|-3p2-6p5-3p2-1-1-|

Lead Guitar
|-----------------|-----------------|-----------------|-----------------|
|-----------------|-----------------|-----------------|-----------------|
|-----------------|-----------------|-----------------|-----------------|
|-----------------|-----------------|-----------------|-----------------|
|-----------------|-----------------|-3p2-2-3p2-2-3p2-|-3p2-6p5-3p2-1-1-|
|-----------------|-----------------|-3p2-2-3p2-2-3p2-|-3p2-6p5-3p2-1-1-|

Verse

Lead and Rhythm
||----------------|-----------------|------------------|---------------||
||----------------|-----------------|------------------|---------------||
||o---------------|--------(P.H.)[7]|------------------|--------------o||
||o---------------|--------------[7]|----------------5-|---7-5-3-5-7--o||
||-----3------6p2-|-----2/3---------|----------------3-|---------------||
||-0-0-3--0-0-6p2-|-0-0-2/3--0-0----|-0-0-2h3--0-0-0---|---------------||

Bridge (variation 1)

Lead Guitar
|-----------|-----------|---------------|---------------|
|-----------|-----------|---------------|---------------|
|-5---5---5-|--5---5--6-|---------------|-------------5-|
|-5---5---5-|--5---5--6-|-7-7----7-7----|------5-3-3-3--|
|-3---3---3-|--3---3--4-|-----5-5---5-5-|-3-3-3---------|
|-----------|-----------|---------------|---------------|

Rhythm Guitar
|-----------|-----------|---------------|---------------|
|-----------|-----------|---------------|---------------|
|-5---5---5-|--5---5--6-|---------------|----5------5---|
|-5---5---5-|--5---5--6-|-------7-----7-|-5------7------|
|-3---3---3-|--3---3--4-|-5-5-5--5-5-5--|---3--3---3—-3-|
|-----------|-----------|---------------|---------------|

|-----------|-----------|-----------------|-----------|
|-----------|-----------|-----------------|-----------|
|-5---5---5-|--5---5—-6-|-----------------|-----------|
|-5---5---5-|--5---5--6-|-----------------|-7\\-------|
|-3---3---3-|--3---3--4-|-5---5---4---4---|-5\\-------|
|-----------|-----------|---0---0---0---0-|-----------|
. . . .


Verse

Lead and Rhythm
||----------------|-----------------|------------------|---------------||
||----------------|-----------------|------------------|---------------||
||o---------------|--------(P.H.)[7]|------------------|--------------o||
||o---------------|--------------[7]|----------------5-|---7-5-3-5-7--o||
||-----3------6p2-|-----2/3---------|----------------3-|---------------||
||-0-0-3--0-0-6p2-|-0-0-2/3--0-0----|-0-0-2h3--0-0-0---|---------------||Bridge

Bridge (variation 2)

Lead Guitar
|-----------|-----------|---------------|---------------|
|-----------|-----------|---------------|---------------|
|-5---5---5-|--5---5--6-|---------------|-------------5-|
|-5---5---5-|--5---5--6-|-7-7----7-7----|------5-3-3-3--|
|-3---3---3-|--3---3--4-|-----5-5---5-5-|-3-3-3---------|
|-----------|-----------|---------------|---------------|
Rhythm Guitar
|-----------|-----------|---------------|---------------|
|-----------|-----------|---------------|---------------|
|-5---5---5-|--5---5--6-|---------------|----5------5---|
|-5---5---5-|--5---5--6-|-------7-----7-|-5------7------|
|-3---3---3-|--3---3--4-|-5-5-5--5-5-5--|---3--3---3—-3-|
|-----------|-----------|---------------|---------------|

Lead Guitar
|-----------------------------------------------------------------|
|-----------------------------------------------------------------|
|-------------------------------------------------6---6---4---4---|
|---------------------------------4---4---6---6-----6---6---4---4-|
|-5---5---4---4---8---8---8---7-----5---5---4---4-----------------|
|---0---0---0---0---0---0---0---0---------------------------------|
Rhythm Guitar
|-----------------------------------------------------------------|
|-----------------------------------------------------------------|
|-----------------------------------------------------------------|
|-----------------------------------------------------------------|
|-5---5---4---4---8---8---8---7---9---9---7---7---14--14--12--12--|
|---0---0---0---0---0---0---0---0---0---0---0---0---0---0---0---0-|


Melody

Here’s the first of three variations for the melody

Lead Guitar and Synthesizer .Extremely melodic. Try to play it as connected as possible
overlapping notes. Sweep the notes in the last measure
|---------------------------|-------------------------|x4
|---------------------------|-------------------------|
|-5--2-----4---------2------|-2--------2---4--------4-|
|-------2-----5---2-----2---|-------3------------5----|
|---------------------------|----3------------5-------|
|---------------------------|-------------------------|

Rhythm Guitar .Punk Rock sounding harmony for the melody
|---------------------------|-------------------------|
|---------------------------|-------------------------|
|---------------------------|-------------------------|
|-7--------5--------7-------|-3-----------5-----------|
|-7--------5--------7-------|-3-----------5-----------|
|-7--------5--------7-------|-3-----------5-----------|

Keyboard solo
||----------------|-----------------|------------------|---------------||
||----------------|-----------------|------------------|---------------||
||o---------------|--------(P.H.)[7]|------------------|--------------o||
||o---------------|--------------[7]|----------------5-|---7-5-3-5-7--o||
||-----3------6p2-|-----2/3---------|----------------3-|---------------||
||-0-0-3--0-0-6p2-|-0-0-2/3--0-0----|-0-0-2h3--0-0-0---|---------------||

pre chorus
|-----------------------------------------------------------------|
|-----------------------------------------------------------------|
|-------------------------------------------------6---6---4---4---|
|---------------------------------4---4---6---6-----6---6---4---4-|
|-5---5---4---4---8---8---8---7-----5---5---4---4-----------------|
|---0---0---0---0---0---0---0---0---------------------------------|
Chorus
|-----------------|-----------------|-----------------|-----------------|
|-----------------|-----------------|-----------------|-----------------|
|-----------------|-----------------|-----------------|-----------------|
|-7-------10------|-3-------5-------|-7-------5-------|-3------2--------|
|-7-------10------|-3-------5-------|-7-------5-------|-3------2--------|
|-7-------10------|-3-------5-------|-7-------5-------|-3------2--------|

Melody

Here’s the first of three variations for the melody

Lead Guitar and Synthesizer .Extremely melodic. Try to play it as connected as possible
overlapping notes. Sweep the notes in the last measure
|---------------------------|-------------------------|x4
|---------------------------|-------------------------|
|-7--4-----6---------4------|-4--------4---6--------6-|
|-------4-----7---4-----4---|-------5------------7----|
|---------------------------|----5------------7-------|
|---------------------------|-------------------------|

Rhythm Guitar .Punk Rock sounding harmony for the melody
|---------------------------|-------------------------|
|---------------------------|-------------------------|
|---------------------------|-------------------------|
|-9--------7--------9-------|-5-----------7-----------|
|-9--------7--------9-------|-5-----------7-----------|
|-9--------7--------9-------|-5-----------7-----------|


SOLO. Its extremely long and complicated I have notations above to help you out

Pull whammy up…… whammy dive………All Sixteenth Notes
|-----------/-|--------\-----|------------------------------9-11{12-11-9-11-12-9-14-9}x2|
|----------/--|---------\----|----------------------9-10-12-----------------------------|
|-(9)N.H.-/---|-[6]P.H.--\---|-----------6-8-8-9-11-------------------------------------|
|--------/----|-----------\--|------6-7-9-----------------------------------------------|
|-------/-----|------------\-|-6-7-9----------------------------------------------------|
|------/------|-------------\|----------------------------------------------------------|

………bend………………………………release.……………………bend……………………release…………whammy up
|-[14]P.H.---T19—---po14-----T19---po14---T19--—po14-----[14]P.H.-/-Y---/--P--/---------|
|----/..(hold bend).....\--------------/(hold bend)\-------------/-M---/--U--/----------|
|---/--------------------\------------/-------------\-----------/-M---/--L--/-----------|
|--/----------------------\----------/---------------\---------/-A---/--L--/------------|
|-------------------------------------------------------------/-H---/--U--/-------------|
|------------------------------------------------------------/-W---/--P--/--------------|

All Triplets
|-24-22-20------------------------------------------------------------------------------|
|----------22-20-18---------------------------------------------------------------------|
|-------------------21-19-17------------------------------------------------------------|
|---------------------------19-17-15-------15--------[17]P.H.---------------------------|
|------------------------------------19-17---19-17-15-----------------------------------|
|---------------------------------------------------------------------------------------|

Eight Notes………………………………………………………sixteenth notes
|----------------------------22|--------------------------------------------------------|
|--------------------22--20----|-18-17-20-18-17-----------------------------------------|
|--------21--17~~19------------|----------------19-17-15-14-----15-14-------------------|
|----19------------------------|-----------------------------17--------17-15-14-15------|
|17----------------------------|--------------------------------------------------------|
|------------------------------|--------------------------------------------------------|

Triplets
|---------------------------------------------------------------------------------------|
|---------------------------------------------------------------------------------------|
|----14----15-14-17-15-14-------14------------------------------------------------------|
|-15----17----------------17-15----17-15-14-17-15-14------------------------------------|
|----------------------------------------------------17-15-13-17-16-15-13---------------|
|---------------------------------------------------------------------------------------|

Sixteenth note Sweep

|-----------------15--20--15---------------15--20--15--20--15----20--15--12-----12------|
|--------------17------------17----------17-------------------17-------------13----13--8|
|----------17-------------------17----17------------------------------------------------|
|------17--------------------------17---------------------------------------------------|
|15-19----------------------------------------------------------------------------------|
|---------------------------------------------------------------------------------------|

Sixteenth note Sweep(alternate fingering)
………………………………………………………tap………………………………………………………………tap…………tap…………………………tap
|------------12--15--20--15--12---------12--15--20--15--20--15--12--20--15--12----12----|
|---------13-------------------13----13---------------------------------------13----13-8|
|------12-------------------------12----------------------------------------------------|
|---14----------------------------------------------------------------------------------|
|15-------------------------------------------------------------------------------------|
|---------------------------------------------------------------------------------------|

|--13-------13---17--22--21--20-----|
|--------15-------------------------|
|-----14----------------------------|
|-----------------------------------|
|-----------------------------------|
|-----------------------------------|

Bridge (variation 3)

Lead Guitar
||------------|-----------|---------------|----------------||x3
||------------|-----------|---------------|----------------||
||o-5---5---5-|--5---5--6-|---------------|-------------5-o||
||o-5---5---5-|--5---5--6-|-7-7----7-7----|------5-3-3-3--o||
||--3---3---3-|--3---3--4-|-----5-5---5-5-|-3-3-3----------||
||------------|-----------|---------------|----------------||

Rhythm Guitar
||------------|-----------|---------------|----------------||x3
||------------|-----------|---------------|----------------||
||o-5---5---5-|--5---5--6-|---------------|----5------5---o||
||o-5---5---5-|--5---5--6-|-------7-----7-|-5------7------o||
||--3---3---3-|--3---3--4-|-5-5-5--5-5-5--|---3--3---3—-3--||
||------------|-----------|---------------|----------------||

Lead and Rhythm Guitar
|--------------------------------|----------------------------------|
|--------------------------------|----------------------------------|
|--------------------------------|----------------------------------|
|--------------------------------|-----------------------7-6-7-6-5--|
|-5---5---4---4---8---8---8---7--|-5---5---4---4---8-5--------------|
|---0---0---0---0---0---0---0---0|---0---0---0---0-----0------------|

Lead Guitar
|-----------------------------------------------------------------|
|-----------------------------------------------------------------|
|-------------------------------------------------6---6---4---4---|
|---------------------------------4---4---6---6-----6---6---4---4-|
|-5---5---4---4---8---8---8---7-----5---5---4---4-----------------|
|---0---0---0---0---0---0---0---0---------------------------------|


Rhythm Guitar
|-----------------------------------------------------------------|
|-----------------------------------------------------------------|
|-----------------------------------------------------------------|
|-----------------------------------------------------------------|
|-5---5---4---4---8---8---8---7---9---9---7---7---14--14--12--12--|
|---0---0---0---0---0---0---0---0---0---0---0---0---0---0---0---0-|


CHORUS


|-----------------|-----------------|-----------------|-----------------|
|-----------------|-----------------|-----------------|-----------------|
|-----------------|-----------------|-----------------|-----------------|
|-7-------10------|-3-------5-------|-7-------5-------|-3------2--------|
|-7-------10------|-3-------5-------|-7-------5-------|-3------2--------|
|-7-------10------|-3-------5-------|-7-------5-------|-3------2--------|

OUTRO


|--------------------------------|----------------------------------|
|--------------------------------|----------------------------------|
|--------------------------------|----------------------------------|
|--------------------------------|----------------------------------|
|--------------------------------|----------------------------------|
|-0000-0-0000-0-0000-1-1-0000-1-1|-0000-0-0000-0-0000-1-1-0000-1-1--|

|--------------------------------|----------------------------------|
|--------------------------------|----------------------------------|
|--------------------------------|----------------------------------|
|--------------------------------|----------------------------------|
|--------------------------------|----------------------------------|
|-0000-0-0000-0-0000-1-1-0000-1-1|-0000-0-0000-1100001100001100-2^--|
Song info
Trashed Lost And Strungout
Children of Bodom
2001
  • Rock
  • Melodic Death Metal
  • Speed Metal
Similar songs
Children Of Bodom - Children of Bodom
Souls Of Black - Testament
Red Light In My Eyes Pt 2 - Children of Bodom
Smile Pretty For The Devil - Children of Bodom

Hi! Hope you enjoy backing track experience.
If you want to help us in the development of the project, feel free to donate!