My Sacrifice - Creed
00:00 / 00:00
Tabs and lyrics
Tunning: Drop D (D A D G B E)
Artist: Creed
Song: My Sacrifice
Album: Weathered
Written by: Mark Tremonti
Tabbed by: Drew Montgomery
E-mail: royalfate@aol.com
Tuning: Drop-D(D-A-D-G-B-E-)

I've redone my earlier version(ver6), and I've included the
Bridge. God bless and rock on!!!


[Intro]

(clean with delay)

E|------------------------------------------------------|
B|----------3-----------------------------0-------------|
G|----2-------2---------------------14------------------|
D|------4-------4----------------12----12---------------|
A|--2-----2-------------2-----10------------------------|
D|------------------------------------------------------|

E|------------------------------------------------------|
B|------------------------------------------------------|
G|--7-7-7\6-6/7----7-7-7\6-6--11-11-11-11/12-12-12------|
D|--x-x-x\x-x/x----x-x-x\x-x--x--x--x--x-/x--x--x-------|
A|--5-5-5\4-4/5----5-5-5\4-4--9--9--9--9-/10-10-10------|
D|------------------------------------------------------|

E|------------------------------------------------------|
B|----------3-----------------------------0-------------|
G|----2-------2---------------------14------------------|
D|------4-------4----------------12----12---------------|
A|--2-----2-------------2-----10------------------------|
D|------------------------------------------------------|


[Verse]

(distortion)

E|------------------------------------------------------|
B|------------------------------------------------------|
G|--7-7-7\6-6/7-----7-----7/9\7-7-7\6-6/7-----7-----7---|
D|--x-x-x\x-x/x-0-0-x-0-0-x/x\x-x-x\x-x/x-0-0-x-0-0-x-0-|
A|--5-5-5\4-4/5-0-0-5-0-0-5/7\5-5-5\4-4/5-0-0-5-0-0-5-0-|
D|--------------0-0---0-0-----------------0-0---0-0---0-|
pm... ... ... ... .
E|------------------------------------------------------|
B|------------------------------------------------------|
G|------------------------------------------------------|
D|--4-4-4-4-4-4-4-4-4---12-12-12-12-12-12-12-12-12------|
A|--2-2-2-2-2-2-2-2-2---10-10-10-10-10-10-10-10-10------|
D|------------------------------------------------------|


[Chorus]

(distortion)

E|------------------------------------------------------|
B|------------------------------------------------------|
G|---------14-12-11-11-9-9-9-9-9-9-9-9-9----------------|
D|--7-7-7--0--0--0--0--0-0-0-0-0-0-0-0-0--4-4-4-4-4-4---|
A|--5-5-5--0--0--0--0--0-0-0-0-0-0-0-0-0--2-2-2-2-2-2---|
D|---------0--0--0--0--0-0-0-0-0-0-0-0-0----------------|

E|------------------------------------------------------|
B|------------------------------------------------------|
G|------------------------------------------------------|
D|--4-4-4--0-0--5-5-5-5p3-3-0-3-------------------------|
A|--2-2-2--0-0--5-5-5-5p3-3-0-3-------------------------|
D|---------0-0--5-5-5-5p3-3-0-3-------------------------|
pm... .

[Solo]

(distortion)

E|------------------------------------------------------|
B|------------------------------------------------------|
G|--11-11\9---9-9\7---7-7\6---4/6-7-7-7\6-6/9-----------|
D|--x--x-\x-0-x-x\x-0-x-x\x-0-x/x-x-x-x\x-x/x-----------|
A|--9--9-\7-0-7-7\5-0-5-5\4-0-2/4-5-5-5\4-4/7-----------|
D|----------0-------0-------0---------------------------|

E|------------------------------------------------------|
B|------------------------------------------------------|
G|--15-15-15-15---15-15-15-15---------------------------|
D|--x--x--x--x--0-x--x--x--x--0-0-0-0-------------------|
A|--13-13-13-13-0-13-13-13-13-0-0-0-0-------------------|
D|--------------0-------------0-0-0-0-------------------|
pm. .....

[Bridge]

(clean with flanger)

E|------------------------------------------------------|
B|------------------------------------------------------|
G|---------14-12-11-11-9-9-9-9-9-9-9-9-9----------------|
D|--7-7-7--0--0--0--0--0-0-0-0-0-0-0-0-0--4-4-4-4-4-4---|
A|--5-5-5--0--0--0--0--0-0-0-0-0-0-0-0-0--2-2-2-2-2-2---|
D|---------0--0--0--0--0-0-0-0-0-0-0-0-0----------------|

E|---------------------0--------------------------------|
B|-------------------0----------------------------------|
G|----------------11------------------------------------|
D|--4-4-4------11----------12-12-12-12-12-12-12-12-12---|
A|--2-2-2----9-------------10-10-10-10-10-10-10-10-10---|
D|------------------------------------------------------|

When Mark comes out of the Bridge and into the final
Chorus he plays this little fill.


[Fill]

(distortion)

E|------------------------------------------------------|
B|------------------------------------------------------|
G|------------------------------------------------------|
D|--0-0-0-0-0-------------------------------------------|
A|--0-0-0-0-0-------------------------------------------|
E|--0-0-0-0-0-3.5*--------------------------------------|
pm.........

And that's it for this song. Good luck!!!



************************************

| x Dead note
| p Pull-off
| / Slide up
| \ Slide down

************************************
Tunning: Standard (E A D G B e)
Group:Creed
Song My Sacrifice
tabbed:Fernando Delgado

Gtr I (D A D A D D) - 'Clean'
Gtr II (D A D A D D) - 'Acoustic'
Gtr III (D A D A D D) - 'Electric 1'
Gtr IV (D A D A D D) - 'Electric 2'
Gtr V (D A D A D D) - 'Slighty Distorted'

Q=73
Gtr I
e|---------0-----------------------------------------------------0-0-0-0-0--(0)-----0-|
B|-----------0--------------------------0-(0)-0------------------0-0-0-0-0--(0)-----0-|
G|---4---------4---------------------12---------12-----------0-0-5-4-4-5-5--(5)-----5-|
D|-----4---------4-(4)--(x)/------12---------------12-(12)---0-0-0-0-0-0-0--(0)---0-0-|
A|-2-----2-------------------0-10----------------------------0-0-5-4-4-5-5--(5)---5-5-|
E|-----------------------------------------------------------0-0-0-0-0-0-0--(0)---0-0-|

Gtr II
e|---------------------------------------------------------------0-0-0-0-0--(0)-----0-|
B|---------------------------------------------------------------0-0-0-0-0--(0)-----0-|
G|-----------------------------------------------------------0-0-5-4-4-5-5--(5)-----5-|
D|-----------------------------------------------------------0-0-0-0-0-0-0--(0)---0-0-|
A|-----------------------------------------------------------0-0-5-4-4-5-5--(5)---5-5-|
E|-----------------------------------------------------------0-0-0-0-0-0-0--(0)---0-0-|

Gtr I
e|-0-0-0-0-0--(0)-0-------------------0---------------------------------------------|
B|-0-0-0-0-0--(0)-0---------------------0-----------------------0-(0)-0-------------|
G|-5-4-4S9-9--(9)-9S10-(10)-0---0---------4------------------12---------12----------|
D|-0-0-0-0-0--(0)-0---------0-----4---------4-(4)---------12---------------12-(12)--|
A|-5-4-4S9-9--(9)-9S10-(10)-0-2-----2---------------0-10----------------------------|
E|-0-0-0-0-0--(0)-0---------0-------------------------------------------------------|

Gtr II
e|-0-0-0-0-0--(0)-0-------------------0---------------------------------------------|
B|-0-0-0-0-0--(0)-0---------------------0-----------------------0-(0)-0-------------|
G|-5-4-4S9-9--(9)-9s10-(10)-0---0---------4------------------12---------12----------|
D|-0-0-0-0-0--(0)-0---------0-----4---------4-(4)---------12---------------12-(12)--|
A|-5-4-4S9-9--(9)-9s10-(10)-0-2-----2---------------0-10----------------------------|
E|-0-0-0-0-0--(0)-0---------0-------------------------------------------------------|

Gtrs III, IV
<
e|----------------------------------------------------------------------------------|
B|----------------------------------------------------------------------------------|
G|----------------------------------------------------------------------------------|
D|----------------------------------------------------[0]---------------------------|
A|----------------------------------------------------[0]---------------------------|
E|----------------------------------------------------[0]---------------------------|

Gtrs III, IV
e|-0-(0)-0-(0)-0--0---0-(0)-0---0-(0)-(0)-0-(0)-0-(0)-0--0---0-(0)-0---------|
B|-0-(0)-0-(0)-0--0---0-(0)-0---0-(0)-(0)-0-(0)-0-(0)-0--0---0-(0)-0---------|
G|-5s=4--4s=5--5--5---4s=5--5---5s=7s==5--5s=4--4s=5--5--5---4s=5--5---4-0-0-|
D|-0-(0)-0-(0)-0--0---0-(0)-0---0-(0)-(0)-0-(0)-0-(0)-0--0---0-(0)-0---0-0-0-|
A|-5s=4--4s=5--5--5---4s=5--5---5s=7s==5--5s=4--4s=5--5--5---4s=5--5---4-0-0-|
E|-0-(0)-0-(0)-0--0-0-0-(0)-0-0-0-(0)-(0)-0-(0)-0-(0)-0--0-0-0-(0)-0-0-0-0-0-|

PM|
e|----0--0-0-0-0-0--0--0--0---0---0--0--0--0--0--0-----|
B|----0--0-0-0-0-0--0--0--0---0---0--0--0--0--0--0-----|
G|----4--4-4-4-4-4--x--x-12--12--12-12-12-12-12-12-----|
D|-4--4--4-4-4-4-4S12-12-12--12--12-12-12-12-12-12-0-0-|
A|-2--2--2-2-2-2-2S10-10-10--10--10-10-10-10-10-10-0-0-|
E|-------------------------------------------------0-0-|

PM PM PM PM
e|--0-(0)-0-(0)-0--0---0-(0)-0---0-(0)-(0)-|-0-(0)-0-(0)-0--0---0-(0)-0--------|
B|o-0-(0)-0-(0)-0--0---0-(0)-0---0-(0)-(0)-|-0-(0)-0-(0)-0--0---0-(0)-0--------|
G|--5s=4--4s=5--5--5---4s=5--5---5s=7s==5--|-5s=4--4s=5--5--5---4s=5--5---4-0-0|
D|--0-(0)-0-(0)-0--0---0-(0)-0---0-(0)-(0)-|-0-(0)-0-(0)-0--0---0-(0)-0---0-0-0|
A|o-5s=4--4s=5--5--5---4s=5--5---5s=7s==5--|-5s=4--4s=5--5--5---4s=5--5---4-0-0|
E|--0-(0)-0-(0)-0--0-0-0-(0)-0-0-0-(0)-(0)-|-0-(0)-0-(0)-0--0-0-0-(0)-0-0-0-0-0|

PM|
e|----0--0-0-0-0-0--0--0-|--0---0---0--0--0--0--0--0------||
B|----0--0-0-0-0-0--0--0-|--0---0---0--0--0--0--0--0-----o||
G|----4--4-4-4-4-4--x--x-|-12--12--12-12-12-12-12-12------||
D|-4--4--4-4-4-4-4S12-12-|-12--12--12-12-12-12-12-12-0-0--||
A|-2--2--2-2-2-2-2S10-10-|-10--10--10-10-10-10-10-10-0-0-o||
E|-----------------------|---------------------------0-0--||

Gtrs I, III, IV
e|--0--0--0-/7-5-4-------------0-0-0-0-0-0-0-0----|
B|o-0--0--0--0-0-0-------------0-0-0-0-0-0-0-0----|
G|--0--0--0--0-0-0-0-0-0-------0-0-0-0-0-0-0-0-0-0|
D|--0--0--0--0-0-0-0-0-0-7-7-7-7-7-7-7-7-7-7-7-0-0|
A|o-0--0--0--0-0-0-0-0-0-4-4-4-4-4-4-4-4-4-4-4-0-0|
E|--0--0--0--0-0-0-0-0-0-----------------------0-0|

1.
PM PM
e|----------------------------------------------------------------||
B|---------------------------------------------------------------o||
G|----------------------12----------------------------------------||
D|-11--11--11-11h12--12-12-9-0-5-(5)-5-5-5-5-0-5s3-0-3-(3)-3-5-3--||
A|--9---9---9--9-(9)--9--9-9-0-5-(5)-5-5-5-5-0-5s3-0-3-(3)-3-5-3-o||
E|--9---9---9--9-(9)--9--9-9-0-5-(5)-5-5-5-5-0-5s3-0-3-(3)-3-5-3--||

2.
PM
e|-------------------------------0--|
B|-------------------------------0--|
G|-------------------------------0--|
D|-5-(5)-5-5-5-5-0-5s3-0-3-(3)-0-0--|
A|-5-(5)-5-5-5-5-0-5s3-0-3-(3)-0-0--|
E|-5-(5)-5-5-5-5-0-5s3-0-3-(3)-0-0--|

Gtrs III, IV
e|-0-(0)-0-(0)-0--0---0-(0)-0---0-(0)-(0)-0-(0)-0-(0)-0--0---0-(0)-0---------|
B|-0-(0)-0-(0)-0--0---0-(0)-0---0-(0)-(0)-0-(0)-0-(0)-0--0---0-(0)-0---------|
G|-5s=4--4s=5--5--5---4s=5--5---5s=7s==5--5s=4--4s=5--5--5---4s=5--5---4-0-0-|
D|-0-(0)-0-(0)-0--0---0-(0)-0---0-(0)-(0)-0-(0)-0-(0)-0--0---0-(0)-0---0-0-0-|
A|-5s=4--4s=5--5--5---4s=5--5---5s=7s==5--5s=4--4s=5--5--5---4s=5--5---4-0-0-|
E|-0-(0)-0-(0)-0--0-0-0-(0)-0-0-0-(0)-(0)-0-(0)-0-(0)-0--0-0-0-(0)-0-0-0-0-0-|

PM|
e|----0--0-0-0-0-0--0--0--0---0---0--0--0--0--0--0-----|
B|----0--0-0-0-0-0--0--0--0---0---0--0--0--0--0--0-----|
G|----4--4-4-4-4-4--x--x-12--12--12-12-12-12-12-12-----|
D|-4--4--4-4-4-4-4S12-12-12--12--12-12-12-12-12-12-0-0-|
A|-2--2--2-2-2-2-2S10-10-10--10--10-10-10-10-10-10-0-0-|
E|-------------------------------------------------0-0-|

PM PM PM PM
e|--0-(0)-0-(0)-0--0---0-(0)-0---0-(0)-(0)-0-(0)-0-(0)-0--0---0-(0)-0---------|
B|o-0-(0)-0-(0)-0--0---0-(0)-0---0-(0)-(0)-0-(0)-0-(0)-0--0---0-(0)-0---------|
G|--5s=4--4s=5--5--5---4s=5--5---5s=7s==5--5s=4--4s=5--5--5---4s=5--5---4-0-0-|
D|--0-(0)-0-(0)-0--0---0-(0)-0---0-(0)-(0)-0-(0)-0-(0)-0--0---0-(0)-0---0-0-0-|
A|o-5s=4--4s=5--5--5---4s=5--5---5s=7s==5--5s=4--4s=5--5--5---4s=5--5---4-0-0-|
E|--0-(0)-0-(0)-0--0-0-0-(0)-0-0-0-(0)-(0)-0-(0)-0-(0)-0--0-0-0-(0)-0-0-0-0-0-|

PM|
e|----0--0-0-0-0-0--0--0--0---0---0--0--0--0--0--0------||-|
B|----0--0-0-0-0-0--0--0--0---0---0--0--0--0--0--0-----o||-|
G|----4--4-4-4-4-4--x--x-12--12--12-12-12-12-12-12------||-|
D|-4--4--4-4-4-4-4S12-12-12--12--12-12-12-12-12-12-0-0--||-|
A|-2--2--2-2-2-2-2S10-10-10--10--10-10-10-10-10-10-0-0-o||-|
E|-------------------------------------------------0-0--||-|

Gtrs I, III, IV
e|--0--0--0-/7-5-4-------------0-0-0-0-0-0-0-0----|
B|o-0--0--0--0-0-0-------------0-0-0-0-0-0-0-0----|
G|--0--0--0--0-0-0-0-0-0-------0-0-0-0-0-0-0-0-0-0|
D|--0--0--0--0-0-0-0-0-0-7-7-7-7-7-7-7-7-7-7-7-0-0|
A|o-0--0--0--0-0-0-0-0-0-4-4-4-4-4-4-4-4-4-4-4-0-0|
E|--0--0--0--0-0-0-0-0-0-----------------------0-0|

1.
PM PM
e|----------------------------------------------------------------||
B|---------------------------------------------------------------o||
G|----------------------12----------------------------------------||
D|-11--11--11-11h12--12-12-9-0-5-(5)-5-5-5-5-0-5s3-0-3-(3)-3-5-3--||
A|--9---9---9--9-(9)--9--9-9-0-5-(5)-5-5-5-5-0-5s3-0-3-(3)-3-5-3-o||
E|--9---9---9--9-(9)--9--9-9-0-5-(5)-5-5-5-5-0-5s3-0-3-(3)-3-5-3--||

2.
e|-----------------------------------|
B|-----------------------------------|
G|-----------------------------------|
D|-5-(5)-5-5-5-5-0-5s3-0-3-(3)-3-3-3-|
A|-5-(5)-5-5-5-5-0-5s3-0-3-(3)-3-3-3-|
E|-5-(5)-5-5-5-5-0-5s3-0-3-(3)-3-3-3-|

Gtrs III, IV
PM PM PM PM|
e|----0-(0)-0-0---0-(0)-0-0---0-(0)-0-0-----0-(0)-0-0-0-(0)-0-(0)-0-(0)-0-0--||
B|o---0-(0)-0-0---0-(0)-0-0---0-(0)-0-0-----0-(0)-0-0-0-(0)-0-(0)-0-(0)-0-0-o||
G|----9s=7--7-7---7s=5--5-5---5s=4--4-4-----2s=4--4-4-5s=4--4s=7--7s=5--5-5--||
D|----0-(0)-0-0---0-(0)-0-0---0-(0)-0-0-----0-(0)-0-0-0-(0)-0-(0)-0-(0)-0-0--||
A|o---9s=7--7-7---7s=5--5-5---5s=4--4-4-----2s=4--4-4-5s=4--4s=7--7s=5--5-5-o||
E|--0-0-(0)-0-0-0-0-(0)-0-0-0-0-(0)-0-0-0-0-0-(0)-0-0-0-(0)-0-(0)-0-(0)-0-0--||

>
PM PM PM PM--|
|-3-|
e|----0--0--0--0----0--0--0--0---------0--0--0--0----0--0--0--0-----------------------|
B|----0--0--0--0----0--0--0--0---------0--0--0--0----0--0--0--0-----------------------|
G|---13-13-13-13---13-13-13-13--------13-13-13-13---13-13-13-13-----------------------|
D|----0--0--0--0----0--0--0--0---------0--0--0--0----0--0--0--0-------0--------(0)----|
A|---13-13-13-13---13-13-13-13-17\----13-13-13-13---13-13-13-13-------0--------(0)----|
E|-0--0--0--0--0-0--0--0--0--0-17\-----0--0--0--0-0--0--0--0--0-0-0-0-0--------(0)----|

Gtr I
e|---------------------------------------------0---0-0-0-/7-5-4--------|
B|---------------------------------------------0---0-0-0--0-0-0--------|
G|---------------------------------------------0---0-0-0--0-0-0-0-0----|
D|---------------------------------------------0---0-0-0--0-0-0-0-0----|
A|---------------------------------------------0---0-0-0--0-0-0-0-0----|
E|---------------------------------------------0---0-0-0--0-0-0-0-0----|

Gtr II
e|-----------------------------------------------0---0-0-0-/7-5-4--------|
B|-----------------------------------------------0---0-0-0--0-0-0--------|
G|-----------------------------------------------0---0-0-0--0-0-0-0-0----|
D|-----------------------------------------------0---0-0-0--0-0-0-0-0----|
A|-----------------------------------------------0---0-0-0--0-0-0-0-0----|
E|-----------------------------------------------0---0-0-0--0-0-0-0-0----|

Gtr I
e|-0-0-0-0-0-0-0-0-0-0-0------------------0--0--0--------------0---|
B|-0-0-0-0-0-0-0-0-0-0-0------------------0--0--0--------0-(0)-----|
G|-0-0-0-0-0-0-0-0-0-0-0------------------0--0--0------0---------0-|
D|-7-7-7-7-7-7-7-7-7-7-7-/11-11-11-11-11-11-11-11---11-------------|
A|-4-4-4-4-4-4-4-4-4-4-4---0--0--9--9--9--9--9--9-9----------------|
E|-------------------------0--0--9--9--9--9--9--9------------------|

Gtr II
e|-0-0-0-0-0-0-0-0-0-0-0------------------0--0--0--------------0---|
B|-0-0-0-0-0-0-0-0-0-0-0------------------0--0--0--------0-(0)-----|
G|-0-0-0-0-0-0-0-0-0-0-0------------------0--0--0------0---------0-|
D|-7-7-7-7-7-7-7-7-7-7-7-/11-11-11-11-11-11-11-11---11-------------|
A|-4-4-4-4-4-4-4-4-4-4-4---0--0--9--9--9--9--9--9-9----------------|
E|-------------------------0--0--9--9--9--9--9--9------------------|

Gtr I
e|-5-----------------------------0--0-0-0-0-/7---7-(7)-7-7-7-0-0-0-0-0-0-0-0-0-0-0-----|
B|-5-----5-5-5-5-5-5-5-(5)-5-5-5-0--0-0-0-0--0---0-(0)-0-0-0-0-0-0-0-0-0-0-0-0-0-0-----|
G|-5-----5-5-5-5-5-5-5-(5)-5-5-5-0--0-0-0-0--0---0-(0)-0-0-0-0-0-0-0-0-0-0-0-0-0-0-----|
D|-7-----7-7-7-7h9-9-9-(9)-7-7-7-0--0-0-0-0--0-0-0-(0)-0-0-0-7-7-7-7-7-7-7-7-7-7-7-0-0-|
A|-5-(5)-5-5-5-5-5-5-5-(5)-5-5-5-0--0-0-0-0--0-0-0-(0)-0-0-0-4-4-4-4-4-4-4-4-4-4-4-0-0-|
E|-5-(5)-5-5-5-5-5-5-5-(5)-5-5-5-0--0-0-0-0--0-0-0-(0)-0-0-0-----------------------0-0-|

Gtr II
e|-5-----------------------------0--0-0-0-0-/7---7-(7)-7-7-7-0-0-0-0-0-0-0-0-0-0-0-----|
B|-5-----5-5-5-5-5-5-5-(5)-5-5-5-0--0-0-0-0--0---0-(0)-0-0-0-0-0-0-0-0-0-0-0-0-0-0-----|
G|-5-----5-5-5-5-5-5-5-(5)-5-5-5-0--0-0-0-0--0---0-(0)-0-0-0-0-0-0-0-0-0-0-0-0-0-0-----|
D|-7-----7-7-7-7h9-9-9-(9)-7-7-7-0--0-0-0-0--0-0-0-(0)-0-0-0-7-7-7-7-7-7-7-7-7-7-7-0-0-|
A|-5-(5)-5-5-5-5-5-5-5-(5)-5-5-5-0--0-0-0-0--0-0-0-(0)-0-0-0-4-4-4-4-4-4-4-4-4-4-4-0-0-|
E|-5-(5)-5-5-5-5-5-5-5-(5)-5-5-5-0--0-0-0-0--0-0-0-(0)-0-0-0-----------------------0-0-|

Gtr I Gtr III
PM|
e|-----0--0--0--0--0-----------------------------------------------------|
B|-----0--0--0--0--0--------0---0-0--------------------------------------|
G|-----0--0--0--0--0------0---0---0-5-5-5-5-5-5-x-x-x-x---x-----x--------|
D|-11-11-11-11-11-11---11---------0-7-7-7-7-7-7-x-x-x-x---x-----x--------|
A|--9--9--9--9--9--9-9------------0-5-5-5-5-5-5-x-x-x-x---x-----x--------|
E|--9--9--9--9--9--9--------------0-5-5-5-5-5-5-x-x-x-x-<2.6>-<2.6>-0-0--|

Gtr II Gtr IV
PM|
e|-----0--0--0--0--0-----------------------------------------------------|
B|-----0--0--0--0--0--------0---0-0--------------------------------------|
G|-----0--0--0--0--0------0---0---0-5-5-5-5-5-5-x-x-x-x---x------x-------|
D|-11-11-11-11-11-11---11---------0-7-7-7-7-7-7-x-x-x-x---x------x-------|
A|--9--9--9--9--9--9-9------------0-5-5-5-5-5-5-x-x-x-x---x------x-------|
E|--9--9--9--9--9--9--------------0-5-5-5-5-5-5-x-x-x-x-<2.6>-<2.6>-0-0--|

e|-0--0--0-/7-5-4-------------0-0-0-0-0-0-0-0-----|
B|-0--0--0--0-0-0-------------0-0-0-0-0-0-0-0-----|
G|-0--0--0--0-0-0-0-0-0-------0-0-0-0-0-0-0-0-0-0-|
D|-0--0--0--0-0-0-0-0-0-7-7-7-7-7-7-7-7-7-7-7-0-0-|
A|-0--0--0--0-0-0-0-0-0-4-4-4-4-4-4-4-4-4-4-4-0-0-|
E|-0--0--0--0-0-0-0-0-0-----------------------0-0-|

PM PM
e|---------------------------------------------------------------|
B|---------------------------------------------------------------|
G|----------------------12---------------------------------------|
D|-11--11--11-11h12--12-12-9-0-5-(5)-5-5-5-5-0-5s3-0-3-(3)-3-5-3-|
A|--9---9---9--9-(9)--9--9-9-0-5-(5)-5-5-5-5-0-5s3-0-3-(3)-3-5-3-|
E|--9---9---9--9-(9)--9--9-9-0-5-(5)-5-5-5-5-0-5s3-0-3-(3)-3-5-3-|

e|----0--0-/7-5-4-0-(0)-0-0-0-0-0-0-0-0-0-0-0-0-|
B|----0--0--0-0-0-0-(0)-0-0-0-0-0-0-0-0-0-0-0-0-|
G|----0--0--0-0-0-0-(0)-0-0-0-0-0-0-0-0-0-0-0-0-|
D|-0--0--0--0-0-0-7-(7)-7-7-7-7-7-7-7-7-7-7-0-0-|
A|-0--0--0--0-0-0-4-(4)-4-4-4-4-4-4-4-4-4-4-0-0-|
E|-0--0--0--0-0-0---------------------------0-0-|

e|---------------------------------------------------------------|
B|---------------------------------------------------------------|
G|----------------------12---------------------------------------|
D|-11--11--11-11h12--12-12-9-0-5-(5)-5-5-5-5-0-5s3-0-3-(3)-3-3-3-|
A|--9---9---9--9-(9)--9--9-9-0-5-(5)-5-5-5-5-0-5s3-0-3-(3)-3-3-3-|
E|--9---9---9--9-(9)--9--9-9-0-5-(5)-5-5-5-5-0-5s3-0-3-(3)-3-3-3-|

PM PM PM PM|
e|----0-(0)-0-0---0-(0)-0-0---0-(0)-0-0-----0-(0)-0-0-0-(0)-0-(0)-0-(0)-0-0--||
B|o---0-(0)-0-0---0-(0)-0-0---0-(0)-0-0-----0-(0)-0-0-0-(0)-0-(0)-0-(0)-0-0-o||
G|----9s=7--7-7---7s=5--5-5---5s=4--4-4-----2s=4--4-4-5s=4--4s=7--7s=5--5-5--||
D|----0-(0)-0-0---0-(0)-0-0---0-(0)-0-0-----0-(0)-0-0-0-(0)-0-(0)-0-(0)-0-0--||
A|o---9s=7--7-7---7s=5--5-5---5s=4--4-4-----2s=4--4-4-5s=4--4s=7--7s=5--5-5-o||
E|--0-0-(0)-0-0-0-0-(0)-0-0-0-0-(0)-0-0-0-0-0-(0)-0-0-0-(0)-0-(0)-0-(0)-0-0--||

PM PM
e|----0--0--0--0----0--0--0--0------|
B|----0--0--0--0----0--0--0--0------|
G|---13-13-13-13---13-13-13-13------|
D|----0--0--0--0----0--0--0--0-x\\--|
A|---13-13-13-13---13-13-13-13-x\\--|
E|-0--0--0--0--0-0--0--0--0--0------|

PM PM--|
|-3-|
e|----0--0--0--0----0--0--0--0-------|----------|--------|
B|----0--0--0--0----0--0--0--0-------|----------|--------|
G|---13-13-13-13---13-13-13-13-------|----------|--------|
D|----0--0--0--0----0--0--0--0-------|-0--------|-(0)----|
A|---13-13-13-13---13-13-13-13-------|-0--------|-(0)----|
E|----0--0--0--0-0--0--0--0--0-0-0-0-|-0--------|-(0)----|

e|--0---0--0-5s=7--5-4------0--0--0-0-0-0-0-0-0-0-------------------------------------|
B|--0---0--0-0-(0)-0-0------0--0--0-0-0-0-0-0-0-0-------------------------------------|
G|--0---0--0-0-(0)-0-0------0--0--0-0-0-0-0-0-0-0-------------------------------------|
D|--0---0--0-0-(0)---0-0-0--7--7--7-7-7-7-7-7-0-0-------------------------------------|
A|--0---0--0-0-(0)---0-0-0--4--4--4-4-4-4-4-4-0-0-9-----------------------------------|
E|--0---0--0-0-(0)---0-0-0--------------------0-0-9-----------------------------------|

e|------------------------------------------------------------------|
B|------------------------------------------4-4-4-4-(4)-5-5-5-5-----|
G|--------------------12-11---0-0-(0)-0--0--0-0-0-0-(0)-0-0-0-0-0-0-|
D|-11-11--11--11h=12--11-11-0-0-0-(0)-0--0--0-0-0-0-(0)---0-0-0-0-0-|
A|--9-(9)-(9)-(9)-(9)--9--9-0-0-5-(5)-5--5--5-5-0-0-(0)---5-5-5-0-0-|
E|--9-(9)-(9)-(9)-(9)--9--9-0-0-5-(5)-5--5--5-5-5-5-(5)---5-5-5-0-0-|

Gtr V
e|-0-(0)-0-0-0-0-0-/7-7-7-(7)-7-0--|
B|-0-(0)-0-0-0-0-0--0-0-0-(0)-0-0--|
G|-0h=2--2-2-0-0-0--0-0-0-(0)-0-0--|
D|-0-(0)-0-0-0-0-0--0-0-0-(0)-0-0--|
A|-0-(0)-0-0-0-0-0--0-0-0-(0)-0-0--|
E|-0-(0)-0-0-0-0-0--0-0-0-(0)-0-0--|

************************************

| (n) Ghost note
| [n] Artificial harmonic (Pinch harmonic)
| x Dead note
| PM Palm mute
| / Slide up
| h Hammer-on
| \ Slide down
| > Accented note

************************************
Tunning: Standard (E A D G B e)
D5 Tuning (low to high) DADADD

Hey here is the way Mark plays it live some times.he he sounds grate to!

Pick the intro with your fingers to make it sound better
D---------------0--------------------------------------------|
D-----------------0-----------------------------0------------|
A--------4-----------4--------------------12-----12----------|
D----------4------------4--------------12----12----12--------|
A-----2------2-------------2----0---10---------------10------|
D------------------------------------------------------------|

Figure 2
D--------------------------------------------------------------------------------|
D--------------------------------------------------------------------------------|
A----------5--5--4-4/5---5--5--4-4/5--5/-4-4--5-5--4-4--5---5--5--4-4--5--4-4-4--|
D----------x--x--x-x-x---x--x--x-x-x--x--x-x--x-x--x-x--x---x--x--x-x--x--x-x-x--|x3
A----------5--5--4-4/5---5--5--4-4/5--5/-4-4--5-5--4-4--5---5--5--4-4--5--4-4-4--|
D----------0--0--0-0-0---0--0--0-0-0--0--0-0--0-0--0-0--0---0--0--0-0--0--0-0-0--|

Strum these a bit
D------------------|
D------------------|
A---4------12------|
D---4------12------|
A---2------10------|
D------------------|

D--0-0--0--0-0-0-0-0-0------------------------------------------------------|
D--0-0--0--0-0-0-0-0-0------------------------------------------------------|
A--0-0--0--0-0-0-0-0-0--0-0-0-0-0-0-----------------------------------------|
D--0-0--0--0-0-0-0-0-0--7-7-7-7-7-7--9-9-9-11-11-11----9-9-9-11-11-11--9-9--|
A--0-0--0--0-2/3/2-0-0--4-4-4-4-4-4--9-9-9-11-11-11----9-9-9-11-11-11--9-9--|
D--0-0--0--0-0-0-0-0-0--0-0-0-0-0-0--9-9-9-9--9--9-----9-9-9--9--9--9--9-9--|

D------------------------------------------|
D------------------------------------------|
A------------------------------------------|
D--5-55-5-5-5-55-5--55--33--00--33--55-----|
A--5-55-5-5-5-55-5--55--33--00--33--55-----|
D--5-55-5-5-5-55-5--55--33--00--33--55-----|

D------------------------------------------------------------------|
D------------------------------------------------------------------|
A-----9-9/7-7----7-7/5-5----5-5/4-4-----2-2/4-4---5-5/4-4/7-7/5-5--|
D-----x-x-x-x----x-x-x-x----x-x-x-x-----x-x-x-x---x-x-x-x-x-x-x-x--|
A-----9-9/7-7----7-7/5-5----5-5/4-4-----2-2/4-4---5-5/4-4/7-7/5-5--|
D---0----------0----------0----------00----------0-----------------|
PM -- - - -- -

D------------------------------- ---------------|
D------------------------------- ---------------|
A--13-13-13-13---13-13-13-13---- ----------0----|
D---x--x--x--x----x--x--x--x----x2 --0-0-0---0----|Let Ring
A--13-13-13-13---13-13-13-13---- --0-0-0---0----|
D---0--0--0--0----0--0--0--0---- --0-0-0---0----|

[Bridge]
Strum Lightly
D---0-0-05-7/5/4-----------------------------------------------|
D---0-0-00-0-0-0-----------------------------------------------|
A---0-0-00-0-0-0---00-0-0-0-00-0-0-0---0--0--0--00---0--0--0---|
D---0-0-00-0-0-0---77-7-7-7-77-7-7-7--11-11-11-11-11-11-11-11--|
A---0-0-00-0-0-0---44-4-4-4-44-4-4-4---9--9--9--9-9--9--9--9---|
D---0-0-00-0-0-0---00-0-0-0-00-0-0-0---9--9--9--9-9--9--9--9---|

D------------------------|
D------------------------|
A---0-0-0-0-00-0---------|
D---5-5-5-5-55-5---------|
A---5-5-5-5-55-5---------|
D---5-5-5-5-55-5---------|

Well this is the song and this is prolly not 100% correct but it sure does sound like it
have fun with it.:)

************************************

/ slide up
H hammer on
P pull off
P.M. Palm Mute
B bend
* harmonics

************************************
Tunning: Standard (E A D G B e)
----------------------------------------------------------------------------
My Sacrifice (Acoustic Version) - Creed
----------------------------------------------------------------------------
Tabbed by: James
Email: the.master.ofpuppets@hotmail.com

Tuning: D A D A D D

As requested by Raymund01. This tab is very similar to the normal one but its slightly
I dont know how many acoustic versions there are but the one i have is played like this.
you dont have it, add my MSN ^^ and i can send it to u, or email it to u. A good way to
out if theyre the same is skipping to 2:50, at this point the crowd all cheer even
the song is over, also the entire song sounds a little shit to be honest coz of the poor
Scotts voice is weird but its still played well.
Also please rate this tab well coz it will be at the bottom of the list and it will need
stars to stand out

This is how u tune it to the weird tuning VV
e|------------------------------------------------------0~~~---------------|
B|-----------------------------------0~~~---------------0~~~---------------|
G|-------------------------0~~~--------------------------------------------|
D|--0~~~-----------------------------0~~~----------------------------------|
A|-------------------------0~~~--------------------------------------------|
E|--0~~~-------------------------------------------------------------------|
| \play until same note/| | \Play until same/|
| | | |Tune e string down
| | |Tune B string up or away
| |Tune G string up or away from you
|Tune E string down, or towards you


[Intro]

d|-----------0----------------------------0----------|
d|-------------0----------------------------0--------|
A|-----4---------4----------------12----------12-----|
D|-------4---------4-----------------12----------12--|
A|---2-----2--------------0----10------10------------|
D|---------------------------------------------------|

d|--------0-0-0-0-0~~--------0-0-0-0-0~~--0--0----------|
d|--------0-0-0-0-0~~--------0-0-0-0-0~~--0--0----------|
A|--------5-4-4/5-5~~--------5-4-4/9-9~~--9/10----------|
D|--0-0---0-0-0-0-0~~--0-0---0-0-0-0-0~~--0--0----------|
A|--0-0---5-4-4/5-5~~--0-0---5-4-4/9-9~~--9/10----------|
D|--0-0---0-0-0-0-0~~--0-0---0-0-0-0-0~~--0--0----------|
^ v ^ ^ ^ ^ ^ v ^ ^ ^ ^

d|-------------0--------------------------0--------------|
d|---------------0--------------------------0------------|
A|-------4---------4--------------x-----------12---------|
D|---------4---------4--------------12-----------12------|
A|--0--2-----2--------------0--10------10----------------|
D|-------------------------------------------------------|

d|--------0-0-0-0-0~~--0-0-0-0-0-0-0--0-0-0-0-0--0-0-0--0-0----|
d|--------0-0-0-0-0~~--0-0-0-0-0-0-0--0-0-0-0-0--0-0-0--0-0----|
A|--------5-4-4/5-5~~--5-4/5-5-4/5/7--5-4-4/5-5--5-4/5--5-4----|
D|--0-0---0-0-0-0-0~~--0-0-0-0-0-0-0--0-0-0-0-0--0-0-0--0-0-0--|
A|--0-0---5-4-4/5-5~~--5-4/5-5-4/5/7--5-4-4/5-5--5-4/5--5-4-0--|
D|--0-0---0-0-0-0-0~~--0-0-0-0-0-0-0--0-0-0-0-0--0-0-0--0-0-0--|
^ v ^ ^ ^ ^ ^ v ^ ^ ^ ^ ^ ^ ^ ^ ^ ^ ^

d|------------0--0-0--0--//-0--0---0---0--0---0---0--0---0---0--0----------|
d|------------0--0-0--0--//-0--0---0---0--0---0---0--0---0---0--0----------|
A|------------0--0-0--0--//-0--0---0---0--0---0---0--0---0---0--0----------|
D|--4--(4)(4)-4--4-4--4--//-12-12--12--12-12--12--12-12--12--12-12---------|
A|--2---2--2--2--2-2--2--//-10-10--10--10-10--10--10-10--10--10-10---------|
D|-------------------------------------------------------------------------|
^ ^ v ^ ^ v ^ ^ v ^ ^ v ^ v ^ ^ ^ V

Then repeat that for the verse


[Chorus]

d|--0--0-0--0--0-0--4/7-7--0-0-0--0--0-0--0---0--0-0--0-0-0-0-0--|
d|--0--0-0--0--0-0--0-0-0--0-0-0--0--0-0--0---0--0-0--0-0-0-0-0--|
A|--0--0-0--0--0-0--0-0-0--0-0-0--0--0-0--0---0--0-0--0-0-0-0-0--|
D|--0--0-0--0--0-0--0-0-0--7-7-7--7--7-7--7---4--4-4--4-4-4/7-7--|
A|--5--5-5--5--5-5--5-0-0--4-4-4--4--4-4--4---2--2-2--2-2-2/5-5--|
D|--0--0-0--0--0-0--0-0-0--0-0-0--0--0-0--0---0--0-0--0-0-0-0-0--|
^ ^ ^ v ^ v ^ ^ ^ ^ ^ v ^ v ^ ^ ^ ^ ^ v ^ ^

d|-------------------------|
d|-------------------------|
A|-------------------------|
D|-------------------------|
A|--5--5--5-5--5p3-0-3-----|
D|--5--5--5-5--5p3-0-3-----|


Then repeat verse and chorus and play:
d|---0-0-0-0-0-0-0-0-0-0-0-0--0-0-0-0-0-0-0-----| x2
d|---0-0-0-0-0-0-0-0-0-0-0-0--0-0-0-0-0-0-0-----|
A|---9\7-7-7\5-5-5\4-4-2/4-4--5\4-4/7-7\5-5-----|
D|---0-0-0-0-0-0-0-0-0-0-0-0--0-0-0-0-0-0-0-----|
A|---9\7-7-7\5-5-5\4-4-2/4-4--5\4-4/7-7\5-5-----|
D|---0-0-0-0-0-0-0-0-0-0-0-0--0-0-0-0-0-0-0-----|

d|---0---0---0---0------0---0---0---0------0---0---0---0----0---0---0---0--|
d|---0---0---0---0------0---0---0---0------0---0---0---0----0---0---0---0--|
A|--13--13--13--13-----13--13--13--13-----13--13--13--13---13--13--13--13--|
D|---0---0---0---0------0---0---0---0------0---0---0---0----0---0---0---0--|
A|--13--13--13--13-----13--13--13--13-----13--13--13--13---13--13--13--13--|
D|------------------0-------------------0----------------0-----------------|

d|---------|
d|---------|
A|---------|
D|--0-0-0--|
A|--0-0-0--|
D|--0-0-0--|


[Chorus]

Then play this variation of the chorus
d|--0--0-0--0--0-0--4/7-7--0-0-0--0--0-0--0---0--0-0--0-0-0--------|
d|--0--0-0--0--0-0--0-0-0--0-0-0--0--0-0--0---0--0-0--0-0-0-----7--|
A|--0--0-0--0--0-0--0-0-0--0-0-0--0--0-0--0---0--0-0--0-0-0---5----|
D|--0--0-0--0--0-0--0-0-0--7-7-7--7--7-7--7---4--4-4--4-4-4--------|
A|--5--5-5--5--5-5--5-0-0--4-4-4--4--4-4--4---2--2-2--2-2-2/5------|
D|--0--0-0--0--0-0--0-0-0--0-0-0--0--0-0--0---0--0-0--0-0-0--------|
^ ^ ^ v ^ v ^ ^ ^ ^ ^ v ^ v ^ ^ ^ ^ ^ v ^

d|-------------------------|
d|-------------------------|
A|-------------------------|
D|-------------------------|
A|--5--5--5-5--5p3-0-3-----|
D|--5--5--5-5--5p3-0-3-----|


[Outro]

and finish with this riff again
d|---0-0-0-0-0-0-0-0-0-0-0-0--0-0-0-0-0-0-0-----| x2
d|---0-0-0-0-0-0-0-0-0-0-0-0--0-0-0-0-0-0-0-----|
A|---9\7-7-7\5-5-5\4-4-2/4-4--5\4-4/7-7\5-5-----|
D|---0-0-0-0-0-0-0-0-0-0-0-0--0-0-0-0-0-0-0-----|
A|---9\7-7-7\5-5-5\4-4-2/4-4--5\4-4/7-7\5-5-----|
D|---0-0-0-0-0-0-0-0-0-0-0-0--0-0-0-0-0-0-0-----|

d|---0---0---0---0------0---0---0---0------0---0---0---0----0---0---0---0--|
d|---0---0---0---0------0---0---0---0------0---0---0---0----0---0---0---0--|
A|--13--13--13--13-----13--13--13--13-----13--13--13--13---13--13--13--13--|
D|---0---0---0---0------0---0---0---0------0---0---0---0----0---0---0---0--|
A|--13--13--13--13-----13--13--13--13-----13--13--13--13---13--13--13--13--|
D|------------------0-------------------0----------------0-----------------|

d|---------4/7~~~~--|
d|---------0~~~~~~--|
A|---------0~~~~~~--|
D|--0-0-0--0~~~~~~--|
A|--0-0-0--0~~~~~~--|
D|--0-0-0--0~~~~~~--|

************************************

| + Harmonic
| x Dead note
| (n) Ghost note
| p Pull-off
| / Slide up
| \ Slide down
| ~ Vibrato

************************************
Song info
My Sacrifice
Creed
2001
  • Rock
  • Alternative Rock
Alternative tracks
Similar songs
Something From Nothing - Foo Fighters
Get Up and Jump - Red Hot Chili Peppers

Hi! Hope you enjoy backing track experience.
If you want to help us in the development of the project, feel free to donate!