Time After Time - Cyndi Lauper
00:00 / 00:00
Tabs and lyrics
Tunning: Standard (E A D G B e)
Capo 2.


[Intro]

Csus4 C Csus2 Csus4 C Csus2 Am Am/G F
e|------------------|------------------|------------------|----------1-------|
B|------1-----1-----|------1-----1-----|--1-------1-------|--------1---------|
G|----0-----0-----0-|----0-----0-----0-|------2-------0---|------2-----------|
D|-2h3----2-----0---|-2h3----2-----0---|----2---2---2---2-|----3-------------|
A|--3---------------|--3---------------|--0---------------|------------------|
E|------------------|------------------|----------3-------|--1---------------|


[Verse 1]

Csus4 C Csus2 Csus4 C Csus2 Csus4 C Csus2 Csus4 C Csus2
e|------------------|------------------|------------------|------------------|
B|------1-----1-----|------1-----1-----|------1-----1-----|------1-----1-----|
G|----0-----0-----0-|----0-----0-----0-|----0-----0-----0-|----0-----0-----0-|
D|--3-----2-----0---|--3-----2-----0---|--3-----2-----0---|--3-----2-----0---|
A|--3-----3---------|--3-----3---------|--3-----3---------|--3-----3---------|
E|------------------|------------------|------------------|------------------|
Lying in my bed I Bear tBe clock tick and tBink of you.

Csus4 C Csus2 Csus4 C Csus2 Csus4 C Csus2 Csus4 C Csus2
e|------------------|------------------|------------------|------------------|
B|------1-----1-----|------1-----1-----|------1-----1-----|------1-----1-----|
G|----0-----0-----0-|----0-----0-----0-|----0-----0-----0-|----0-----0-----0-|
D|--3-----2-----0---|--3-----2-----0---|--3-----2-----0---|--3-----2-----0---|
A|--3-----3---------|--3-----3---------|--3-----3---------|--3-----3---------|
E|------------------|------------------|------------------|------------------|
Turning in circles confusion is notBing new.

F G Em F F G Em Em7
e|------------------|------------------|--1---------------|----------0-------|
B|--------------0---|--------------1---|--------------0---|--------0-----3---|
G|------------2-----|------------2-----|------2-----2-----|------0-------0---|
D|------3---0-----0-|------2---3-----3-|----3-----0-----0-|----2-------2---0-|
A|----3-------------|----2-------------|------------------|------------------|
E|--1-----3---------|--0-----1---------|--1-----3---------|--0---------------|
FlasBback to warm nigBts, almost left beBind.

F G Em F F G C
e|------------------|------------------|------------------|------------------|
B|--------------0---|--------------1---|------1-------0---|------1-----1-----|
G|------------2-----|------------2-----|------------------|----0-----0-------|
D|------3---0-----0-|------2---3-----3-|----3-------3-----|--3-----2----2p0--|
A|----3-------------|----2-------------|------------------|--3-----3-------3-|
E|--1-----3---------|--0-----1---------|--1-------1---3-3-|------------------|
Suitcases of memories time after sometimes...


[Chorus]

G Am F G Csus4 C Csus2
e|--3-----3---------|------------------|------------------|------------------|
B|--0-----0-------0-|----------1---0---|------------------|--------1---1-----|
G|------2-------2---|------2-----------|--------2-----0---|------0-0---0-0---|
D|----0-------0-----|----2-------2---2-|------3-----0---0-|----2--2h3--2-0---|
A|------------------|--0-------0-------|----3-------------|--3-------------3-|
E|--3-----3-3-------|--------0-----3---|--1-------3-------|------------------|
If you're lost...

G Am F G Csus4 C Csus2
e|--3-----3---------|------------------|------------------|------------------|
B|--0-----0-------0-|----------1---0---|------------------|--------1---1-----|
G|------2-------2---|------2-----------|--------2-----0---|------0-0---0-0---|
D|----0-------0-----|----2-------2---2-|------3-----0---0-|----2--2h3--2-0---|
A|------------------|--0-------0-------|----3-------------|--3-------------3-|
E|--3-----3-3-------|--------0-----3---|--1-------3-------|------------------|
Song info
Time After Time
Cyndi Lauper
2001
  • Pop
  • Rock
  • Pop Rock
Alternative tracks
Similar songs
Bring Me Some Water - Melissa Etheridge
Keep The Faith - Bon Jovi
The Visitors - ABBA
Hey Jude - The Beatles

Hi! Hope you enjoy backing track experience.
If you want to help us in the development of the project, feel free to donate!