Space Oddity - David Bowie
00:00 / 00:00
Tabs and lyrics
Tunning: Standard (E A D G B e)
Space Oddity David Bowie


[Intro]

Fmaj7 Em Fmaj7 Em


C Em
Ground Control to Major Tom
C Em
Ground Control to Major Tom
Am Am7 D7
Take your protein pills and put your helmet on

C Em
Ground Control to Major Tom
C Em
Commencing countdown, engines on
Am Am7 D7
Check ig-nition and may God's love be with you

E F F# G G# A A# B C C# D D# E


C E
This is Ground Control to Major Tom
E7 F
You've really made the grade
Fm C F
And the papers want to know whose shirts you wear
Fm C F
Now it's time to leave the capsule if you dare

C E
This is Major Tom to Ground Control
E7 F
I'm stepping through the door
Fm C F
And I'm floating in a most peculiar way
Fm C F
And the stars look very different today


Fmaj7 Em
For here Am I sitting in a tin can
Fmaj7 Em
Far above the world
Bb Am G F
Planet Earth is blue And there's nothing I can do

C F G A A
C F G A A

Fmaj7 Em7 A C D9 E
e|------------|----------|----5-------|------------|----------------|-------------|
B|1-3-1-------|----------|---5-8~-5---|-5h6p5----5\|---10-12-10----7\-------------|
G|------2~p0h2|--0-2-0---|-56------6--/5~-----5-5\-/11-11-12----7-7\|-------------|
D|------------|2------2--|7---------7-|--------7---|-------------9--|-------------|
A|------------|--------0-|------------|------------|----------------|-------------|
E|------------|----------|------------|------------|----------------|12-12-10/3p0-|

C E
Though I'm past one hundred thousand miles
E7 F
I'm feeling very still
Fm C F
And I think my spaceship knows which way to go
Fm C F
Tell my wife I love her very much she knows


G E7
Ground Control to Major Tom
Am
Your circuit's dead,
Am7
there's something wrong
D7
Can you hear me, Major Tom?
C
Can you hear me, Major Tom?
G
Can you hear me, Major Tom?

Can you here....
Tunning: Standard (E A D G B e)
This is my first tab! Enjoy!

CHORDS:

Fmaj7/E C Am Am/G D Dsus4
e|-0-------|-0-------|-0-------|-0------|-2-------|-3-------|
B|-1-------|-1-------|-1-------|-1------|-3-------|-3-------|
G|-2-------|-0-------|-2-------|-2------|-2-------|-2-------|
D|-3-------|-2-------|-2-------|-2------|-0-------|-0-------|
A|-3-------|-3-------|-0-------|-0------|---------|---------|
E|-0-------|---------|---------|-3------|---------|---------|

E Em7 E7 F Fm Bb
e|-0-------|-0-------|-0-------|-1------|-1-------|-6-------|
B|-0-------|-3-------|-3-------|-1------|-1-------|-6-------|
G|-1-------|-0-------|-1-------|-2------|-1-------|-7-------|
D|-2-------|-2-------|-2-------|-3------|-3-------|-8-------|
A|-2-------|-2-------|-2-------|-3------|-3-------|-8-------|
E|-0-------|-0-------|-0-------|-1------|-1-------|-6-------|

Am(2) A(2) G C(2) E7/G#
e|-5-------|-5-------|-3-------|-8------|---------|
B|-5-------|-5-------|-3-------|-8------|-3-------|
G|-5-------|-6-------|-4-------|-9------|-4-------|
D|-7-------|-7-------|-5-------|-10-----|-2-------|
A|-7-------|-7-------|-5-------|-10-----|---------|
E|-5-------|-5-------|-3-------|-8------|-4-------|


MAIN TAB


[INTRO]

Fmaj7/E Em
e|-0---0-0-0---0-0-0-0-0--0-0-0-0-0---0-0-0-0-0-0-0-0-0---|
B|-1---1-1-1---1-1-1-1-1--1-1-1-0-0---0-0-0-0-0-0-0-0-0---|
G|-2---2-2-2---2-2-2-2-2--2-2-2-0-0---0-0-0-0-0-0-0-0-0---|
D|-3---3-3-3---3-3-3-3-3--3-3-3-0-2---2-2-2-2-2-2-2-0-0---| REPEAT 4 TIMES
A|-3---3-3-3---3-3-3-3-3--3-3-3-0-2---2-2-2-2-2-0h2-0-0---|
E|-0---0-0-0---0-0-0-0-0--0-0-0-0-0---0-0-0-0-0-0-0-0-0---|


[VERSE]

C Em
e|-0---0-0---0-0---0-0----0-0-0-0-0---0-0-0---0-0-0-0-0-0-0-0-0---|
B|-1---1-1---1-1---1-1----1-1-1-0-0---0-0-0---0-0-0-0-0-0-0-0-0---|
G|-0---0-0---0-0---0-0----0-0-0-0-0---0-0-0---0-0-0-0-0-0-0-0-0---|
D|-2---2-2---2-2---2-2----2-2-2-0-2---2-2-2---2-2-2-2-2-2-2-0-0---|
A|-3---3-3---3-3---3-3----3-3-3-0-2---2-2-2---2-2-2-2-2-0h2-0-0---|
E|-0---0-0---0-0---0-0----0-0-0-0-0---0-0-0---0-0-0-0-0-0-0-0-0---|

C Em
e|-0---0-0-0--0-0-0-0-0----0-0-0-0-0---0-0-0---0-0-0-0-0-0-0-0-0---|
B|-1---1-1-1--1-1-1-1-1----1-1-1-0-0---0-0-0---0-0-0-0-0-0-0-0-0---|
G|-0---0-0-0--0-0-0-0-0----0-0-0-0-0---0-0-0---0-0-0-0-0-0-0-0-0---|
D|-2---2-2-2--2-2-2-2-2----2-2-2-0-2---2-2-2---2-2-2-2-2-2-2-0-0---| REPEAT 2 TIMES
A|-3---3-3-3--3-3-3-3-3----3-3-3-0-2---2-2-2---2-2-2-2-2-0h2-0-0---|
E|-0---0-0-0--0-0-0-0-0----0-0-0-0-0---0-0-0---0-0-0-0-0-0-0-0-0---|

Am Am/G D Dsus4 D
e|-0---0-0-0--0-0-0--0-0-0-0-0-2---2-2---2-3-3-3-2---2-2-2-0-----------|
B|-1---1-1-1--1-1-1--1-1-1-0-0-3---3-3---3-3-3-3-3---3-3-3-0-----------|
G|-2---2-2-2--2-2-2--2-2-2-0-0-2---2-2---2-2-2-2-2---2-2-2-0-----------|
D|-2---2-2-2--2-2-2--2-2-2-0-0-0---0-0---0-0-0-0-0---0-0-0-0-----------|
A|-0---0-0-0--0-0-0--0-0-0-0-0-----------------------------------------|
E|----------------3--3-3-3-0-0-----------------------------------------|

C Em
e|-0---0-0-0-0-0-0-0-0-0-0-0-0-0-0-0---0-0-0---0-0-0-0-0-0-0-0-0---|
B|-1---1-1-1-1-1-1-1-1-1-1-1-1-1-0-0---0-0-0---0-0-0-0-0-0-0-0-0---|
G|-0---0-0-0-0-0-0-0-0-0-0-0-0-0-0-0---0-0-0---0-0-0-0-0-0-0-0-0---|
D|-2---2-2-2-2-2-2-2-2-2-2-2-2-2-0-2---2-2-2---2-2-2-2-2-2-2-0-0---|
A|-3---3-3-3-3-3-3-3-3-3-3-3-3-3-0-2---2-2-2---2-2-2-2-2-0h2-0-0---|
E|-0---0-0-0-0-0-0-0-0-0-0-0-0-0-0-0---0-0-0---0-0-0-0-0-0-0-0-0---|

C Em
e|-0---0-0-0--0-0-0-0-0-0-0-0-0-0-0-0-0---0-0-0---0-0-0-0-0---0-0-0-0--|
B|-1---1-1-1--1-1-1-1-1-1-1-1-1-1-1-0-0---0-0-0---0-0-0-0-0---0-0-0-0--|
G|-0---0-0-0--0-0-0-0-0-0-0-0-0-0-0-0-0---0-0-0---0-0-0-0-0---0-0-0-0--|
D|-2---2-2-2--2-2-2-2-2-2-2-2-2-2-2-0-2---2-2-2---2-2-2-2-2---2-2-2-0--|
A|-3---3-3-3--3-3-3-3-3-3-3-3-3-3-3-0-2---2-2-2---2-2-2-2-2---2-2-2-0--|
E|-0---0-0-0--0-0-0-0-0-0-0-0-0-0-0-0-0---0-0-0---0-0-0-0-0---0-0-0-0--|

Am Am/G D
e|-0---0-0-0--0-0-0--0-0-0-0-0-2~-------------|
B|-1---1-1-1--1-1-1--1-1-1-0-0-3~-------------|
G|-2---2-2-2--2-2-2--2-2-2-0-0-2~-------------|
D|-2---2-2-2--2-2-2--2-2-2-0-0-0~-------------|
A|-0---0-0-0--0-0-0--0-0-0-0-0----------------|
E|----------------3--3-3-3-0-0----------------|


[SOLO 1]

e|-----7-----7~s15--16--13----20b21--------------------------|
B|--------6-------------------20b21-20---<19>----------------|
G|-----------------------------------------<19>--------------|
D|-------------------------------------------<19>-<19>-<19>--|
A|-----------------------------------------------------------|
E|0~~--------------------------------------------------------|
NOTE: THESE HARMONICS+BENDS ARE NOT WHAT IS PLAYED IN THE ACTUAL SONG.
I COULDN'T QUITE GET IT RIGHT SO THEY ARE JUST PLACEHOLDERS FOR NOW.


[CHORUS]

C E E7
e|-0---0-0---0-0-0-0-0-0-0-0-0-0--0---0-0-0---0-0-0-0-0-0-0-0-0-0--|
B|-1---1-1---1-1-1-1-1-1-1-1-1-0--0---0-0-3---3-3-3-3-3-3-3-3-3-0--|
G|-0---0-0---0-0-0-0-0-0-0-0-0-0--1---1-1-1---1-1-1-1-1-1-1-1-1-0--|
D|-2---2-2---2-2-2-2-2-2-2-2-2-0--2---2-2-2---2-2-2-2-2-2-2-2-2-0--|
A|-3---3-3---3-3-3-3-3-3-3-3-3-0--2---2-2-2---2-2-2-2-2-2-2-2-2-0--|
E|--------------------------------0---0-0-0---0-0-0-0-0-0-0-0-0-0--|

F Fm C
e|-1---1-1-1-1-1-1---1-1---1-1-1-1---1-1-1-0---0-0-0-0-0-0-0-0----|
B|-1---1-1-1-1-1-1---1-1---1-1-1-1---1-1-1-0---1-1-1-1-1-1-1-0----|
G|-2---2-2-2-2-2-2---2-2---2-2-2-1---1-1-1-0---0-0-0-0-0-0-0-0----|
D|-3---3-3-3-3-3-3---3-3---3-3-3-3---3-3-3-0---2-2-2-2-2-2-2-0----|
A|-3---3-3-3-3-3-3---3-3---3-3-3-3---3-3-3-0---3-3-3-3-3-3-3-0----|
E|-1---1-1-1-1-1-1---1-1---1-1-1-1---1-1-1-0---0-0-0-0-0-0-0-0----|

F Fm C
e|-1---1-1-1---1-1-1-1-1---1-1-1-1-1---1-1-1---1-0--0-0-0-0-0-0-0-0-------|
B|-1---1-1-1---1-1-1-1-1---1-1-1-1-1---1-1-1---1-0--1-1-1-1-1-1-1-0-------|
G|-2---2-2-2---2-2-2-2-2---2-2-2-2-1---1-1-1---1-0--0-0-0-0-0-0-0-0-------|
D|-3---3-3-3---3-3-3-3-3---3-3-3-3-3---3-3-3---3-0--2-2-2-2-2-2-2-0-------|
A|-3---3-3-3---3-3-3-3-3---3-3-3-3-3---3-3-3---3-0--3-3-3-3-3-3-3-0-------|
E|-1---1-1-1---1-1-1-1-1---1-1-1-1-1---1-1-1---1-0----------------0-------|

F C
e|-1---1-1-1---1-1-1-1-1-1-1-1-1-0-0---0-0-0-0-0-0-0-0-0-0-0-------|
B|-1---1-1-1---1-1-1-1-1-1-1-1-1-0-1---1-1-1-1-1-1-1-1-1-1-0-------|
G|-2---2-2-2---2-2-2-2-2-2-2-2-2-0-0---0-0-0-0-0-0-0-0-0-0-0-------|
D|-3---3-3-3---3-3-3-3-3-3-3-3-3-0-2---2-2-2-2-2-2-2-2-2-2-0-------|
A|-3---3-3-3---3-3-3-3-3-3-3-3-3-0-3---3-3-3-3-3-3-3-3-3-3-0-------|
E|-1---1-1-1---1-1-1-1-1-1-1-1-1-0---------------------------------|

E E7 F Fm
e|-0---0-0-0---0-0-0-0-0---0-0-0-0-1---1-1-1---1-1-1-1-1---1-1-1-1-1-1-----|
B|-0---0-0-3---3-3-3-3-3---3-3-3-0-1---1-1-1---1-1-1-1-1---1-1-1-1-1-1-----|
G|-1---1-1-1---1-1-1-1-1---1-1-1-0-2---2-2-2---2-2-2-2-2---2-2-2-2-2-1-----|
D|-2---2-2-2---2-2-2-2-2---2-2-2-0-3---3-3-3---3-3-3-3-3---3-3-3-3-3-3-----|
A|-2---2-2-2---2-2-2-2-2---2-2-2-0-3---3-3-3---3-3-3-3-3---3-3-3-3-3-3-----|
E|-0---0-0-0---0-0-0-0-0---0-0-0-0-1---1-1-1---1-1-1-1-1---1-1-1-1-1-1-----|

Fm C F Fm
e|-1-1-1-0-0-0-0-0-0-0-0-0-0-1---1-1-1---1-1-1-1-1---1-1-1-1-1---1-1-1-----|
B|-1-1-1-0-1-1-1-1-1-1-1-1-0-1---1-1-1---1-1-1-1-1---1-1-1-1-1---1-1-1-----|
G|-1-1-1-0-0-0-0-0-0-0-0-0-0-2---2-2-2---2-2-2-2-2---2-2-2-2-1---1-1-1-----|
D|-3-3-3-0-2-2-2-2-2-2-2-2-0-3---3-3-3---3-3-3-3-3---3-3-3-3-3---3-3-3-----|
A|-3-3-3-0-3-3-3-3-3-3-3-3-0-3---3-3-3---3-3-3-3-3---3-3-3-3-3---3-3-3-----|
E|-1-1-1-0-------------------1---1-1-1---1-1-1-1-1---1-1-1-1-1---1-1-1-----|

C F
e|-0-0-0-0-0-0-0-0-0-0-1---1-1-1---1-1-1-1---1-1-1-0-----|
B|-0-1-1-1-1-1-1-1-1-0-1---1-1-1---1-1-1-1---1-1-1-0-----|
G|-0-0-0-0-0-0-0-0-0-0-2---2-2-2---2-2-2-2---2-2-2-0-----|
D|-0-2-2-2-2-2-2-2-2-0-3---3-3-3---3-3-3-3---3-3-3-0-----|
A|-0-3-3-3-3-3-3-3-3-0-3---3-3-3---3-3-3-3---3-3-3-0-----|
E|-0-------------------1---1-1-1---1-1-1-1---1-1-1-0-----|


[BRIDGE]

Fmaj7/E Em7
e|-0---0-0-0---0-0-0-0-0---0-0-0-0-0---0-0-0---0-0-0-0-0---0-0-0-0----|
B|-1---1-1-1---1-1-1-1-1---1-1-1-0-3---3-3-3---3-3-3-3-3---3-3-3-0----|
G|-2---2-2-2---2-2-2-2-2---2-2-2-0-0---0-0-0---0-0-0-0-0---0-0-0-0----|
D|-3---3-3-3---3-3-3-3-3---3-3-3-0-2---2-2-2---2-2-2-2-2---2-2-2-0----| REPEAT TWICE
A|-3---3-3-3---3-3-3-3-3---3-3-3-0-2---2-2-2---2-2-2-2-2---2-2-2-0----|
E|-0---0-0-0---0-0-0-0-0---0-0-0-0-0---0-0-0---0-0-0-0-0---0-0-0-0----|

Bb Am G F
e|-6---6-6-6---6-0-5---5-5-5---5-0-3---3-3-3---3-0-1---1-1-1---1-1-1-1-1---1-1-1-|
B|-6---6-6-6---6-0-5---5-5-5---5-0-3---3-3-3---3-0-1---1-1-1---1-1-1-1-1---1-1-1-|
G|-7---7-7-7---7-0-5---5-5-5---5-0-4---4-4-4---4-0-2---2-2-2---2-2-2-2-2---2-2-2-|
D|-8---8-8-8---8-0-7---7-7-7---7-0-5---5-5-5---5-0-3---3-3-3---3-3-3-3-3---3-3-3-|
A|-8---8-8-8---8-0-7---7-7-7---7-0-5---5-5-5---5-0-3---3-3-3---3-3-3-3-3---3-3-3-|
E|-6---6-6-6---6-0-5---5-5-5---5-0-3---3-3-3---3-0-1---1-1-1---1-1-1-1-1---1-1-1-|

C F G A
e|--8---x-1-1-x-3---x-x-5--5----------|
B|--8---x-1-1-x-3---x-x-5--5----------|
G|--9---x-2-2-x-4---x-x-6--6----------|
D|--10--x-3-3-x-5---x-x-7--7----------| REPEAT TWICE
A|--10--x-3-3-x-5---x-x-7--7----------|
E|--8---x-1-1-x-3---x-x-5--5----------|


[SOLO 2]

e|----------------------------------------------|
B|----------------------------------------------|
G|---5--7--5--------5---------------------------|
D|-7----------7-5-7--------5--7--5--------------|
A|----------------------7-----------7-----------|
E|-------------------------------------5--------|

e|---------5-----------------------------------------|
B|-------5---8-5-------------------------------------|
G|---5-6---------6---------8-10--8h9-----------8h9---|
D|-7---------------7----10-----------10--8h10--------|
A|---------------------------------------------------|
E|---------------------------------------------------|

e|------------------------------------------------|
B|-10--12--10-------------------------------------|
G|-11--12--11------------10s11--------------------|
D|------------12--10-12----------2----------------|
A|------------------------------------------------|
E|----------------------------------3--3--0-------|


[VERSE]

C E E7
e|-0---0-0-0-0-0-0-0-0-0---0-0-0-0-0---0-0-0---0-0-0-0-0---0-0-0-0--|
B|-1---1-1-1-1-1-1-1-1-1---1-1-1-0-0---0-0-3---3-3-3-3-3---3-3-3-0--|
G|-0---0-0-0-0-0-0-0-0-0---0-0-0-0-1---1-1-1---1-1-1-1-1---1-1-1-0--|
D|-2---2-2-2-2-2-2-2-2-2---2-2-2-0-2---2-2-2---2-2-2-2-2---2-2-2-0--|
A|-3---3-3-3-3-3-3-3-3-3---3-3-3-0-2---2-2-2---2-2-2-2-2---2-2-2-0--|
E|-------------------------------0-0---0-0-0---0-0-0-0-0---0-0-0-0--|

F Fm
e|-1---1-1-1---1-1-1-1-1---1-1-1-1-1---1-1-1-0-----|
B|-1---1-1-1---1-1-1-1-1---1-1-1-1-1---1-1-1-0-----|
G|-2---2-2-2---2-2-2-2-2---2-2-2-2-1---1-1-1-0-----|
D|-3---3-3-3---3-3-3-3-3---3-3-3-3-3---3-3-3-0-----|
A|-3---3-3-3---3-3-3-3-3---3-3-3-3-3---3-3-3-0-----|
E|-1---1-1-1---1-1-1-1-1---1-1-1-1-1---1-1-1-0-----|

C F Fm
e|-0-0-0-0-0-0-0-0-0-1---1-1-1---1-1-1-1-1---1-1-1-1-1---1-1-1---1-0-|
B|-1-1-1-1-1-1-1-1-0-1---1-1-1---1-1-1-1-1---1-1-1-1-1---1-1-1---1-0-|
G|-0-0-0-0-0-0-0-0-0-2---2-2-2---2-2-2-2-2---2-2-2-2-1---1-1-1---1-0-|
D|-2-2-2-2-2-2-2-2-0-3---3-3-3---3-3-3-3-3---3-3-3-3-3---3-3-3---3-0-|
A|-3-3-3-3-3-3-3-3-0-3---3-3-3---3-3-3-3-3---3-3-3-3-3---3-3-3---3-0-|
E|-----------------0-1---1-1-1---1-1-1-1-1---1-1-1-1-1---1-1-1---1-0-|

e|-0---0-0-0-0-0-0-1---1-1-1---1-1-1-1-1---1-1-1-0-----|
B|-1---1-1-1-1-1-0-1---1-1-1---1-1-1-1-1---1-1-1-0-----|
G|-0---0-0-0-0-0-0-2---2-2-2---2-2-2-2-2---2-2-2-0-----|
D|-2---2-2-2-2-2-0-3---3-3-3---3-3-3-3-3---3-3-3-0-----|
A|-3---3-3-3-3-3-0-3---3-3-3---3-3-3-3-3---3-3-3-0-----|
E|---------------0-1---1-1-1---1-1-1-1-1---1-1-1-0-----|

G E7/G#
e|-3---3-3-3---3-0-------------8s10s8---8s10---8s10---8s10---8s7-----|
B|-3---3-3-3---3-0-3---3-3-3-----------------------------------------|
G|-4---4-4-4---4-0-4---4-4-4---5s7-s5---5s7----5s7----5s7----5s4-----|
D|-5---5-5-5---5-0-2---2-2-2-----------------------------------------|
A|-5---5-5-5---5-0---------------------------------------------------|
E|-3---3-3-3---3-0-4---4-4-4-----------------------------------------|


[BRIDGE 2]

Fmaj7/E Em7
e|-0---0-0-0---0-0-0-0-0---0-0-0-0-0---0-0-0---0-0-0-0-0---0-0-0-0----|
B|-1---1-1-1---1-1-1-1-1---1-1-1-0-3---3-3-3---3-3-3-3-3---3-3-3-0----|
G|-2---2-2-2---2-2-2-2-2---2-2-2-0-0---0-0-0---0-0-0-0-0---0-0-0-0----|
D|-3---3-3-3---3-3-3-3-3---3-3-3-0-2---2-2-2---2-2-2-2-2---2-2-2-0----| REPEAT TWICE
A|-3---3-3-3---3-3-3-3-3---3-3-3-0-2---2-2-2---2-2-2-2-2---2-2-2-0----|
E|-0---0-0-0---0-0-0-0-0---0-0-0-0-0---0-0-0---0-0-0-0-0---0-0-0-0----|

Bb Am G F
e|-6---6-6-6---6-0-5---5-5-5---5-0-3---3-3-3---3-0-1---1-1-1---1-1-1-1-1---1-1-1-|
B|-6---6-6-6---6-0-5---5-5-5---5-0-3---3-3-3---3-0-1---1-1-1---1-1-1-1-1---1-1-1-|
G|-7---7-7-7---7-0-5---5-5-5---5-0-4---4-4-4---4-0-2---2-2-2---2-2-2-2-2---2-2-2-|
D|-8---8-8-8---8-0-7---7-7-7---7-0-5---5-5-5---5-0-3---3-3-3---3-3-3-3-3---3-3-3-|
A|-8---8-8-8---8-0-7---7-7-7---7-0-5---5-5-5---5-0-3---3-3-3---3-3-3-3-3---3-3-3-|
E|-6---6-6-6---6-0-5---5-5-5---5-0-3---3-3-3---3-0-1---1-1-1---1-1-1-1-1---1-1-1-|

C F G A
e|--8---x-1-1-x-3---x-x-5--5----------|
B|--8---x-1-1-x-3---x-x-5--5----------|
G|--9---x-2-2-x-4---x-x-6--6----------|
D|--10--x-3-3-x-5---x-x-7--7----------| REPEAT TWICE
A|--10--x-3-3-x-5---x-x-7--7----------|
E|--8---x-1-1-x-3---x-x-5--5----------|


[SOLO 3]

e|--------------------------------------------------------|
B|--------------------------------------------------------|
G|---5-7--5---------------------7h9-9-7h9p7---------------|
D|-7---------7--5--7------7h8h9--------------9p79p75------|
A|--------------------5------------------------------7~---|
E|--------------------------------------------------------|

e|-------5------------------8--12-8------------------------|
B|-----5---8-5--------------8-------8----------------------|
G|-6-7---------6-7----------9---------10-9-----------------|
D|-----------------7-----------------------10--------------|
A|-------------------0-7-5--------------------10-8-7-8-7---|
E|---------------------------------------------------------|

e|---------------------------------------------|
B|---------------------------------------------|
G|-12-10----12-------12------------------------|
D|-------12-12-10----12-10----10----10---------|
A|----------------12-------12----12------------|
E|---------------------------------------------|

e|-12-1212-1212-1212-1212-1212-1212-1212-12-12-1212-1212-1212-1212--|
B|------------------------------------------------------------------|
G|------------------------------------------------------------------|
D|------------------------------------------------------------------|
A|------------------------------------------------------------------|
E|------------------------------------------------------------------|
(this isn't 1,2,1,2, it's 12,12)

e|-12-12-1212-1212-----|
B|---------------------|
G|---------------------|
D|---------------------| FOR NEXT 30 SECONDS, GRADUALLY SLIDE UP THE e
A|---------------------| STRING, EVEN PAST THE FRETS
E|---------------------|

FADE OUT



************************************

h hammer on
p pull off
<_> harmonic
s slide
b bend
r release bend
x deaden string(s)

************************************
Tunning: Standard (E A D G B e)
e|--0-0-0-0-0-0-0-0-0-0-0---0-0-0-0-0-0-0-0-0-0-0---|R
B|--1-1-1-1-1-1-1-1-1-1-1---0-0-0-0-0-0-0-0-0-0-0---|E
G|--0-0-0-0-0-0-0-0-0-0-0---0-0-0-0-0-0-0-0-0-0-0---|P
D|--2-2-2-2-2-2-2-2-2-2-2---2-2-2-2-2-2-2-2-2-2-2---|E
A|--3-3-3-3-3-3-3-3-3-3-3---2-2-2-2-2-2-2-2-2-2-2---|A
E|--0-0-0-0-0-0-0-0-0-0-0---0-0-0-0-0-0-0-0-0-0-0---|-T

VERSE

e|--0-0-0-0-0-0-0-0-0-0-0---0-0-0-0-0-0-0-0-0-0-0---|R
B|--1-1-1-1-1-1-1-1-1-1-1---0-0-0-0-0-0-0-0-0-0-0---|E
G|--0-0-0-0-0-0-0-0-0-0-0---0-0-0-0-0-0-0-0-0-0-0---|P
D|--2-2-2-2-2-2-2-2-2-2-2---2-2-2-2-2-2-2-2-2-2-2---|E
A|--3-3-3-3-3-3-3-3-3-3-3---2-2-2-2-2-2-2-2-2-2-2---|A
E|--0-0-0-0-0-0-0-0-0-0-0---0-0-0-0-0-0-0-0-0-0-0---|T
GROUND CONTROL TO MAJOR TOM ETC.


BRIDGE

e|---0---1---3---0---0---|
B|---1---1---0---2---2---|
G|---0---2---0---2---2---|
D|---2---3---0---2---2---|
A|---3---3---2---0---0---|
E|---0---1---3---0---0---|


SOLO 1

e|--------------------------------------------------------------------|
B|------------------------------------------------------10------------|
G|-------------------------------------------------9-12----12-9-------|
D|-----10-12-10------------------------------10-12--------------12-10-|
A|--12----------------10-12-10----12------12--------------------------|
E|-----------------12----------12-------------------------------------|

e|--------------------------------------------------------------------|
B|---------------------------------12-10---------10-------------------|
G|--------12-9----------9-----9-12-------12-9-12----------------------|
D|--10-12------12-10-12-----------------------------------------------|
A|-----------------------------------------------------5-4-3-2b3r2----|
E|-----------------------------------------------------------0-LR-----|


SOLO 2

e|-----------------------------------------------|
B|-----------------------------------------------|
G|--------------------10h11h12p11p10-------------|
D|--10-12-10----10-12----------------12p11p10----|
A|--------------------------------------------10-|
E|-----------------------------------------------|

e|----------------------------------15-------------------|
B|-------------------------------12----14-12-------------|
G|--------12-10-----------------12-----------14-12-------|
D|--10-12-------12-10----------12------------------14-12-|
A|--------------------12-10------------------------------|
E|-------------------------------------------------------|

e|-------------------------------------------------------|
B|-------------------------------12-------12-------------|
G|----------------------12-10----12-10----12-10----------|
D|----------------------------12-------12-------12-10----|
A|-14-13-12---------12--------------------------------12-|
E|----------15-12-15-------------------------------------|

e|--------PICK SLIDE---|
B|--------PICK SLIDE---|
G|--------PICK SLIDE---|
D|--12-----------------|
A|---------------------|
E|---------------------|
Song info
Space Oddity
David Bowie
2001
  • Rock
  • Pop Rock
Alternative tracks
Similar songs
A View To A Kill - Duran Duran
Silent Running - Mike And The Mechanics

Hi! Hope you enjoy backing track experience.
If you want to help us in the development of the project, feel free to donate!