Who Can It Be Now - Men at Work
00:00 / 00:00
Tabs and lyrics
Tunning: Standard (E A D G B e)
[Intro]
e|----------------------------------------------------|
B|----------------------------------------------------|
G|-----------9-------6-6----------9--------4-4--------|
D|---0-6-7-----7-6---6-6---0-6-7-----7-6---4-4---x2---|
A|-------------------4-4-------------------2-2--------|
E|----------------------------------------------------|

[Verse 1]
(Guitar 1)
e|-----------------------------------------------|
B|-----------------------------------------------|
G|--9--9----7--7----6--6----6---6-----4--4-------|
D|--9--9----7--7----6--6----6---6-----4--4---x4--|
A|--7--7----5--5----4--4----4---4-----2--2-------|
E|-----------------------------------------------|

(Guitar 2)
(played once when guitar 1 is played twice)
e|-------0----|
B|----2-------|
G|--1---------|
D|------------|
A|------------|
E|------------|

[Chorus]
(Guitar 1)
e|-----------------------|
B|-----------------------|
G|--6------4-------------|
D|--6-x16--4-x16-----x2--|
A|--4------2-------------|
E|-----------------------|

(Guitar 2)
(saxophone arranged for guitar)
(played right after "who can it be now")
e|-----------------------|
B|-----------------------|
G|---------9-------------|
D|--0-6-7----7-6----x2---|
A|-----------------------|
E|-----------------------|

[Verse 2]
(Guitar 1)
e|-----------------------------------------------|
B|-----------------------------------------------|
G|--9--9----7--7----6--6----6---6----4--4--------|
D|--9--9----7--7----6--6----6---6----4--4---x4---|
A|--7--7----5--5----4--4----4---4----2--2--------|
E|-----------------------------------------------|

(Guitar 2)
e|-------0----|
B|----2-------|
G|--1---------|
D|------------|
A|------------|
E|------------|

[Chorus]
(Guitar 1)
e|-----------------------|
B|-----------------------|
G|--6------4-------------|
D|--6-x16--4-x16-----x2--|
A|--4------2-------------|
E|-----------------------|

(Guitar 2)
(saxophone arranged for guitar)
e|-----------------------|
B|-----------------------|
G|---------9-------------|
D|--0-6-7---7-6----x2----|
A|-----------------------|
E|-----------------------|

[Bridge]
e|----------------------------------------------|
B|----------------------------------------------|
G|--------------------4-4-4-4-4-4-4-4-----------|
D|--4-4-4-4-4-4-4-4---4-4-4-4-4-4-4-4------x4---|
A|--4-4-4-4-4-4-4-4---2-2-2-2-2-2-2-2-----------|
E|--2-2-2-2-2-2-2-2-----------------------------|

(Rhythm guitar during saxophone solo)
e|----------------------------|
B|----------------------------|
G|--9--9----7--7---7-7--------|
D|--9--9----7--7---7-7----x4--|
A|--7--7----5--5---5-5--------|
E|----------------------------|

[Chorus]
(Guitar 1)
e|-----------------------|
B|-----------------------|
G|--6------4-------------|
D|--6-x16--4-x16-----x2--|
A|--4------2-------------|
E|-----------------------|

(Guitar 2)
(saxophone arranged for guitar)
e|-----------------------|
B|-----------------------|
G|---------9-------------|
D|--0-6-7---7-6----x2----|
A|-----------------------|
E|-----------------------|

[Outro]
(Guitar 1)
e|-----------------------|
B|-----------------------|
G|--6------4-------------|
D|--6-x16--4-x16------x4-|
A|--4------2-------------|
E|-----------------------|

(Guitar 2)
(saxophone arranged for guitar)
e|-----------------------|
B|-----------------------|
G|---------9-------------|
D|--0-6-7---7-6-------x4-|
A|-----------------------|
E|-----------------------|


************************************

| x Dead note

************************************
Song info
Who Can It Be Now
Men at Work
2001
  • Pop
  • Rock
  • Pop Rock
Alternative tracks
Similar songs
Be Like That - 3 Doors Down
In Your Eyes - Peter Gabriel
Yellow River - Christie
Mr Blue Sky - Electric Light Orchestra
School - Supertramp

Hi! Hope you enjoy backing track experience.
If you want to help us in the development of the project, feel free to donate!