Thinking Out Loud - Ed Sheeran
00:00 / 00:00
Tabs and lyrics
Tunning: Standard (E A D G B e)
-------------------------------------------------------------------------------
Thinking Out Loud - Ed Sheeran
-------------------------------------------------------------------------------
Tabbed by: schnakeeee

Tuning: half step down for most live versions, standard for the recording

So I noticed that there was no good tab for this song, and I absolutely love it, so
I learned it and thought I'd make one. It's pretty easy to get the rhythm down if you
listen to the track. Also, between each chord, ed slaps down on the strings to mute them, and
there are some stylistic slaps and strums here and there.


*build up


[Verse 1]

D D/F# G A
e|-------------------------------------------|
B|----3-----3---------3-----2----------------|
G|----2-----2---------------2h4--------------|
D|----0-----0---------0-----2----------------| X8
A|----0---------------2-----0----------------|
E|----------2----2----3----------------------|


[Prechorus]

Em Em A D Em Em A A Em Em A Bm Em Em A7*
e|---------------------------------------------------------------------------------------0-----|
B|----0----0------2----3------0----0------2----2------0----0------2----3------0----0-----2-----|
G|----0----0------2----2------0----0------2----2------0----0------2----4------0----0-----0-----|
D|----2----2------2----0------2----2------2----2------2----2------2----4------2----2-----2-----|
A|----2----2------0----0------2----2------0----0------2----2------0----2------2----2-----0-----|
E|---------------------------------------------------------------------------------------0-----|


[Chorus]

D D/F# G A
e|-------------------------------------------|
B|----3-----3---------3-----2----------------|
G|----2-----2---------------2h4--------------|
D|----0-----0---------0-----2----------------| X4
A|----0---------------2-----0----------------|
E|----------2----2----3----------------------|

Bm A G D/F# Em A D
e|-----------------------------------------------------|
B|----3-----2------3-----3-----0-----2-----3-----------|
G|----4-----2------0-----2-----0-----2-----2-----------|
D|----4-----2------2-----0-----2-----2-----0-----------|
A|----2-----0------------------2-----0-----0-----------|
E|-----------------3-----2-----------------------------|


[Verse 2]

D D/F# G A
e|-------------------------------------------|
B|----3-----3---------3-----2----------------|
G|----2-----2---------------2h4--------------|
D|----0-----0---------0-----2----------------| X8
A|----0---------------2-----0----------------|
E|----------2----2----3----------------------|


[Prechorus]

Em Em A D Em Em A A Em Em A Bm Em Em A7*
e|---------------------------------------------------------------------------------------0-----|
B|----0----0------2----3------0----0------2----2------0----0------2----3------0----0-----2-----|
G|----0----0------2----2------0----0------2----2------0----0------2----4------0----0-----0-----|
D|----2----2------2----0------2----2------2----2------2----2------2----4------2----2-----2-----|
A|----2----2------0----0------2----2------0----0------2----2------0----2------2----2-----0-----|
E|---------------------------------------------------------------------------------------0-----|


[Chorus]

D D/F# G A
e|-------------------------------------------|
B|----3-----3---------3-----2----------------|
G|----2-----2---------------2h4--------------|
D|----0-----0---------0-----2----------------| X4
A|----0---------------2-----0----------------|
E|----------2----2----3----------------------|

Bm A G D/F# Em A D
e|-----------------------------------------------------|
B|----3-----2------3-----3-----0-----2-----3-----------|
G|----4-----2------0-----2-----0-----2-----2-----------|
D|----4-----2------2-----0-----2-----2-----0-----------|
A|----2-----0------------------2-----0-----0-----------|
E|-----------------3-----2-----------------------------|


[Interlude]

D D/F# G A
e|-------------------------------------------|
B|----3-----3---------3-----2----------------|
G|----2-----2---------------2h4--------------|
D|----0-----0---------0-----2----------------| X3
A|----0---------------2-----0----------------|
E|----------2----2----3----------------------|

D D/F# A7*
e|------------------0----------------------|
B|----3-----3-------2----------------------|
G|----2-----2-------0----------------------|
D|----0-----0-------2----------------------|
A|----0-------------0----------------------|
E|----------2-------0----------------------|


[Chorus]

D D/F# G A
e|-------------------------------------------|
B|----3-----3---------3-----2----------------|
G|----2-----2---------------2h4--------------|
D|----0-----0---------0-----2----------------| X4
A|----0---------------2-----0----------------|
E|----------2----2----3----------------------|

Bm A G D/F# Em A D
e|-----------------------------------------------------|
B|----3-----2------3-----3-----0-----2-----3-----------|
G|----4-----2------0-----2-----0-----2-----2-----------|
D|----4-----2------2-----0-----2-----2-----0-----------|x3
A|----2-----0------------------2-----0-----0-----------|
E|-----------------3-----2-----------------------------|



************************************

| h Hammer-on

************************************
Tunning: Standard (E A D G B e)
[Verse]

D D/F# G6 A D D/F# G6 A
e|--2----x-----2--x--------x-----------2----x-----2--x--------x--------------|
B|--3----x--3--3--x-----0--x--2--------3----x--2--3--x-----0--x--2-----------|
G|--0h2--x--2--2--x-----0--x--2---2h4--0h2--x--3--2--x-----0--x--2---2h4-----|
D|-------x--0--0--x-----0--x--2--2----------x--0--0--x-----0--x--2--2--------|
A|-------x-----0--x--------x--0-------------x-----0--x--------x--0-----------|
E|-------x--2--2--x--0--3--x----------------x--2--2--x--0--3--x--------------|

D D/F# G6 A D D/F# G6 A
e|--2----x-----2--x--------x-----------2----x-----2--x--------x-----0--x-----|
B|--3----x--3--3--x-----0--x--2--------3----x--2--3--x-----0--x--2--2--x-----|
G|--0h2--x--2--2--x-----0--x--2---2h4--0h2--x--3--2--x-----0--x--2--2--x-----|
D|-------x--0--0--x-----0--x--2--2----------x--0--0--x-----0--x--2--2--x-----|
A|-------x-----0--x--------x--0-------------x-----0--x--------x--0--0--x-----|
E|-------x--2--2--x--0--3--x----------------x--2--2--x--0--3--x--------x-----|

D D/F# G6 A
When your legs don't work like they used to before
D D/F# G6 A
And I can't sweep you off of your feet
D D/F# G6 A
Will your mouth still remember the taste of my love
D D/F# G6 A
Will your eyes still smile from your cheeks

D D/F# G6 A D D/F# G6 A
e|--2----x-----2--x--------x-----0--x--2----x-----2--x--------x-----0--x-----|
B|--3----x--3--3--x-----0--x--2--2--x--3----x--2--3--x-----0--x--2--2--x-----|
G|--0h2--x--2--2--x-----0--x--2--2--x--0h2--x--3--2--x-----0--x--2--2--x-----|
D|-------x--0--0--x-----0--x--2--2--x-------x--0--0--x-----0--x--2--2--x-----|
A|-------x-----0--x--------x--0--0--x-------x-----0--x--------x--0--0--x-----|
E|-------x--2--2--x--0--3--x--------x-------x--2--2--x--0--3--x--------x-----|

D D/F# G6 A D D/F# G6 A
e|--2----x-----2--x--------x-----0--x--2----x-----2--x--------x-----0--x-----|
B|--3----x--3--3--x-----0--x--2--2--x--3----x--2--3--x-----0--x--2--2--x-----|
G|--0h2--x--2--2--x-----0--x--2--2--x--0h2--x--3--2--x-----0--x--2--2--x-----|
D|-------x--0--0--x-----0--x--2--2--x-------x--0--0--x-----0--x--2--2--x-----|
A|-------x-----0--x--------x--0--0--x-------x-----0--x--------x--0--0--x-----|
E|-------x--2--2--x--0--3--x--------x-------x--2--2--x--0--3--x--------x-----|

D D/F# G6 A D D/F# G6 A
And darling I will be loving you 'til we're 70
D D/F# G6 A D D/F#
And baby my heart could still fall as hard at 23
G6 A
And I'm thinking 'bout how

Em A D Em A
e|--------x-----0--x--------x--2--2--x--------x-----0--x--------x-----0--x---|
B|-----0--x--0--0--x-----2--x--3--3--x-----0--x--0--0--x-----2--x--2--2--x---|
G|-----0--x--0--0--x-----2--x--2--2--x-----0--x--0--0--x-----2--x--2--2--x---|
D|-----2--x--2--2--x-----2--x--0--0--x-----2--x--2--2--x-----2--x--2--2--x---|
A|--0--2--x--2--2--x--0--0--x--------x--0--2--x--2--2--x--0--0--x--0--0--x---|
E|--------x-----0--x--------x--------x--------x-----0--x--------x--------x---|

Em A Bm Em A
e|--------x-----0--x--------x-----2--x--------x-----0--x-----0-0-0-0-0-------|
B|-----0--x--0--0--x-----2--x--3--3--x-----0--x--0--0--x-----2-2-2-2-2-------|
G|-----0--x--0--0--x-----2--x--4--4--x-----0--x--0--0--x-----2-2-2-2-2-------|
D|-----2--x--2--2--x-----2--x--4--4--x-----2--x--2--2--x-----2-2-2-2-2-------|
A|--0--2--x--2--2--x--0--0--x--2--2--x--0--2--x--2--2--x--0--0-0-0-0-0-------|
E|--------x-----0--x--------x--------x--------x-----0--x---------------------|

Em A D
people fall in love in mysterious ways
Em A
Maybe just the touch of a hand
Em A Bm
Oh me I fall in love with you every single day
Em A
And I just wanna tell you I am


[Chorus]

D D/F# G6 A D D/F# G6 A
e|--2----x-----2--x--------x-----0--x--2----x-----2--x--------x-----0--x-----|
B|--3----x--3--3--x-----0--x--2--2--x--3----x--2--3--x-----0--x--2--2--x-----|
G|--0h2--x--2--2--x-----0--x--2--2--x--0h2--x--3--2--x-----0--x--2--2--x-----|
D|-------x--0--0--x-----0--x--2--2--x-------x--0--0--x-----0--x--2--2--x-----|
A|-------x-----0--x--------x--0--0--x-------x-----0--x--------x--0--0--x-----|
E|-------x--2--2--x--0--3--x--------x-------x--2--2--x--0--3--x--------x-----|

D D/F# G6 A D D/F# G6 A
e|--2----x-----2--x--------x-----0--x--2----x-----2--x--------x-----0--x-----|
B|--3----x--3--3--x-----0--x--2--2--x--3----x--2--3--x-----0--x--2--2--x-----|
G|--0h2--x--2--2--x-----0--x--2--2--x--0h2--x--3--2--x-----0--x--2--2--x-----|
D|-------x--0--0--x-----0--x--2--2--x-------x--0--0--x-----0--x--2--2--x-----|
A|-------x-----0--x--------x--0--0--x-------x-----0--x--------x--0--0--x-----|
E|-------x--2--2--x--0--3--x--------x-------x--2--2--x--0--3--x--------x-----|

Bm A G D/F# Em A D
e|--------------------------------------------2------------------------------|
B|--3------2------3------3------0------2------3------------------------------|
G|--4------2------0------2------0------2------2------------------------------|
D|--4------2------0------0------2------2------0------------------------------|
A|--2------0--------------------2------0-------------------------------------|
E|----------------3------2---------------------------------------------------|

D D/F# G6 A D D/F# G6
So honey now take me into your loving arms
A D D/F# G6
Kiss me under the light of a thousand stars
A D D/F#
Place your head on my beating heart
G6 A
I'm thinking out loud
Bm A G D/F# Em A D
Maybe we found love right where we are


[Verse]

D D/F# G6 A D D/F# G6 A
e|--2----x-----2--x--------x--------------2----x-----2--x--------x-----------|
B|--3----x--3--3--x-----0--x--2-----------3----x--2--3--x-----0--x--2--------|
G|--0h2--x--2--2--x-----0--x--2---2h4--0--0h2--x--3--2--x-----0--x--2---2h4--|
D|-------x--0--0--x-----0--x--2--2-------------x--0--0--x-----0--x--2--2-----|
A|-------x-----0--x--------x--0----------------x-----0--x--------x--0--------|
E|-------x--2--2--x--0--3--x-------------------x--2--2--x--0--3--x-----------|

D D/F# G6 A D D/F# G6 A
e|---2----x-----2--x--------x--------------2----x-----2--x--------x-----0--x-|
B|---3----x--3--3--x-----0--x--2-----------3----x--2--3--x-----0--x--2--2--x-|
G|0--0h2--x--2--2--x-----0--x--2---2h4--0--0h2--x--3--2--x-----0--x--2--2--x-|
D|--------x--0--0--x-----0--x--2--2-------------x--0--0--x-----0--x--2--2--x-|
A|--------x-----0--x--------x--0----------------x-----0--x--------x--0--0--x-|
E|--------x--2--2--x--0--3--x-------------------x--2--2--x--0--3--x--------x-|

D D/F# G6 A
When my hair's all but gone and my memory fades
D D/F# G6 A
And the crowds don't remember my name
D D/F# G6 A
When my hands don't play the strings the same way
D D/F# G6 A
I know you will still love me the same

D D/F# G6 A D D/F# G6 A
e|--2----x-----2--x--------x-----0--x--2----x-----2--x--------x-----0--x-----|
B|--3----x--3--3--x-----0--x--2--2--x--3----x--2--3--x-----0--x--2--2--x-----|
G|--0h2--x--2--2--x-----0--x--2--2--x--0h2--x--3--2--x-----0--x--2--2--x-----|
D|-------x--0--0--x-----0--x--2--2--x-------x--0--0--x-----0--x--2--2--x-----|
A|-------x-----0--x--------x--0--0--x-------x-----0--x--------x--0--0--x-----|
E|-------x--2--2--x--0--3--x--------x-------x--2--2--x--0--3--x--------x-----|

D D/F# G6 A D D/F# G6 A
e|--2----x-----2--x--------x-----0--x--2----x-----2--x--------x-----0--x-----|
B|--3----x--3--3--x-----0--x--2--2--x--3----x--2--3--x-----0--x--2--2--x-----|
G|--0h2--x--2--2--x-----0--x--2--2--x--0h2--x--3--2--x-----0--x--2--2--x-----|
D|-------x--0--0--x-----0--x--2--2--x-------x--0--0--x-----0--x--2--2--x-----|
A|-------x-----0--x--------x--0--0--x-------x-----0--x--------x--0--0--x-----|
E|-------x--2--2--x--0--3--x--------x-------x--2--2--x--0--3--x--------x-----|

D D/F# G6 A D D/F# G6 A
Cause honey your soul could never grow old, it's evergreen
D D/F# G6 A D D/F#
And, baby, your smile's forever in my mind and memory
G6 A
I'm thinking 'bout how

Em A D Em A
e|--------x-----0--x--------x--2--2--x--------x-----0--x--------x-----0--x---|
B|-----0--x--0--0--x-----2--x--3--3--x-----0--x--0--0--x-----2--x--2--2--x---|
G|-----0--x--0--0--x-----2--x--2--2--x-----0--x--0--0--x-----2--x--2--2--x---|
D|-----2--x--2--2--x-----2--x--0--0--x-----2--x--2--2--x-----2--x--2--2--x---|
A|--0--2--x--2--2--x--0--0--x--------x--0--2--x--2--2--x--0--0--x--0--0--x---|
E|--------x-----0--x--------x--------x--------x-----0--x--------x--------x---|


Em A Bm Em A
e|--------x-----0--x--------x-----2--x--------x-----0--x-----0-0-0-0-0-------|
B|-----0--x--0--0--x-----2--x--3--3--x-----0--x--0--0--x-----2-2-2-2-2-------|
G|-----0--x--0--0--x-----2--x--4--4--x-----0--x--0--0--x-----2-2-2-2-2-------|
D|-----2--x--2--2--x-----2--x--4--4--x-----2--x--2--2--x-----2-2-2-2-2-------|
A|--0--2--x--2--2--x--0--0--x--2--2--x--0--2--x--2--2--x--0--0-0-0-0-0-------|
E|--------x-----0--x--------x--------x--------x-----0--x---------------------|

Em A D
people fall in love in mysterious ways
Em A
Maybe it's all part of a plan
Em A Bm
Well, I'll just keep on making the same mistakes
Em A
Hoping that you'll understand


[Chorus]

D D/F# G6 A D D/F# G6 A
e|--2----x-----2--x--------x-----0--x--2----x-----2--x--------x-----0--x-----|
B|--3----x--3--3--x-----0--x--2--2--x--3----x--2--3--x-----0--x--2--2--x-----|
G|--0h2--x--2--2--x-----0--x--2--2--x--0h2--x--3--2--x-----0--x--2--2--x-----|
D|-------x--0--0--x-----0--x--2--2--x-------x--0--0--x-----0--x--2--2--x-----|
A|-------x-----0--x--------x--0--0--x-------x-----0--x--------x--0--0--x-----|
E|-------x--2--2--x--0--3--x--------x-------x--2--2--x--0--3--x--------x-----|

D D/F# G6 A D D/F# G6 A
e|--2----x-----2--x--------x-----0--x--2----x-----2--x--------x-----0--x-----|
B|--3----x--3--3--x-----0--x--2--2--x--3----x--2--3--x-----0--x--2--2--x-----|
G|--0h2--x--2--2--x-----0--x--2--2--x--0h2--x--3--2--x-----0--x--2--2--x-----|
D|-------x--0--0--x-----0--x--2--2--x-------x--0--0--x-----0--x--2--2--x-----|
A|-------x-----0--x--------x--0--0--x-------x-----0--x--------x--0--0--x-----|
E|-------x--2--2--x--0--3--x--------x-------x--2--2--x--0--3--x--------x-----|

Bm A G D/F# Em A D
e|--------------------------------------------2------------------------------|
B|--3------2------3------3------0------2------3------------------------------|
G|--4------2------0------2------0------2------2------------------------------|
D|--4------2------0------0------2------2------0------------------------------|
A|--2------0--------------------2------0-------------------------------------|
E|----------------3------2---------------------------------------------------|

D D/F# G6 A D D/F# G6
baby, now take me into your loving arms
A D D/F# G6
Kiss me under the light of a thousand stars
A D D/F#
Place your head on my beating heart
G6 A
Thinking out loud
Bm A G D/F# Em A D
That maybe we found love right where we are


[Solo]

D D/F# G6 A D D/F# G6 A
e|--2----x-----2--x--------x--------------2----x-----2--x--------x-----------|
B|--3----x--3--3--x-----0--x--2-----------3----x--2--3--x-----0--x--2--------|
G|--0h2--x--2--2--x-----0--x--2---2h4--0--0h2--x--3--2--x-----0--x--2---2h4--|
D|-------x--0--0--x-----0--x--2--2-------------x--0--0--x-----0--x--2--2-----|
A|-------x-----0--x--------x--0----------------x-----0--x--------x--0--------|
E|-------x--2--2--x--0--3--x-------------------x--2--2--x--0--3--x-----------|

D D/F# G6 A D D/F# G6 A
e|---2----x-----2--x--------x--------------2----x-----2--x-------------------|
B|---3----x--3--3--x-----0--x--2-----------3----x--2--3--x---0-0-0-0-2-2-2-2-|
G|0--0h2--x--2--2--x-----0--x--2---2h4--0--0h2--x--3--2--x---0-0-0-0-2-2-2-2-|
D|--------x--0--0--x-----0--x--2--2-------------x--0--0--x---0-0-0-0-2-2-2-2-|
A|--------x-----0--x--------x--0----------------x-----0--x---x-x-x-x-0-0-0-0-|
E|--------x--2--2--x--0--3--x-------------------x--2--2--x-0-3-3-3-3---------|


[Chorus]

D D/F# G6 Asus D D/F# G6 Asus
e|--2---2--2-2-2-2--3-3-3-3-----------2---2--2-2-2-2--3-3-3-3----------------|
B|--3---3--3-3-3-3--3-3-3-3--3-3-3-3--3---3--3-3-3-3--3-3-3-3--3-3-3-3-------|
G|--0h2-2--2-2-2-2--0-0-0-0--2-2-2-2--0h2-2--2-2-2-2--0-0-0-0--2-2-2-2-------|
D|---------0-0-0-0--0-0-0-0--2-2-2-2---------0-0-0-0--0-0-0-0--2-2-2-2-------|
A|---------0-0-0-0--x-x-x-x--0-0-0-0---------0-0-0-0--x-x-x-x--0-0-0-0-------|
E|---------2-2-2-2--3-3-3-3------------------2-2-2-2--3-3-3-3----------------|

D D/F# G6 Asus D D/F# G6 Asus
e|--2---2--2-2-2-2--3-3-3-3-----------2---2--2-2-2-2--3-3-3-3----------------|
B|--3---3--3-3-3-3--3-3-3-3--3-3-3-3--3---3--3-3-3-3--3-3-3-3--3-3-3-3-------|
G|--0h2-2--2-2-2-2--0-0-0-0--2-2-2-2--0h2-2--2-2-2-2--0-0-0-0--2-2-2-2-------| X 2
D|---------0-0-0-0--0-0-0-0--2-2-2-2---------0-0-0-0--0-0-0-0--2-2-2-2-------|
A|---------0-0-0-0--x-x-x-x--0-0-0-0---------0-0-0-0--x-x-x-x--0-0-0-0-------|
E|---------2-2-2-2--3-3-3-3------------------2-2-2-2--3-3-3-3----------------|


Bm A G D/F# Em A D
e|--------------------------------------------2------------------------------|
B|--3------2------3------3------0------2------3------------------------------|
G|--4------2------0------2------0------2------2------------------------------|x3
D|--4------2------0------0------2------2------0------------------------------|
A|--2------0--------------------2------0-------------------------------------|
E|----------------3------2---------------------------------------------------|

D D/F# G6 A D D/F# G6
So baby, now take me into your loving arms
A D D/F# G6
Kiss me under the light of a thousand stars
A D D/F#
Place your head on my beating heart
G6 A
Thinking out loud
Bm A G D/F# Em A D
That maybe we found love right where we are
Bm A G D/F# Em A D
Oh baby, we found love right where we are
Bm A G D/F# Em A D
And we found love right where we are


***********************************
| h Hummer-on
| x Dead note
***********************************
Tunning: Standard (E A D G B e)
Hey guys, this is the first tab I'm submitting, I noticed there is
no tab of this song that is the exact way how Ed plays it, so I hope
you'll find this one helpful, I'll be glad for any feedback, you can
email me at kevinturner9@gmail.com if you find any mistakes or ways
how to improve the tab, I'll try to correct it right away :-). And please,
listen to the song to find out where to tap the strings and stuff like that.

ED SHEERAN - Thinking Out Loud (Tab)

e||------------------------0-----------------------------||
B||----3---------3-------0------2------------------------||
G||----0h2-------2-------0------2----2h4-----------------||
D||----0---------------------------2-----2---------------||
A||-----------------------------0------------------------||
E||--------------2-------3-------------------------------||

When your legs don’t work like they used to before

e||------------------------0-----------------------------||
B||----3---------3-------0------2------------------------||
G||----0h2-------2-------0------2----2h4-----------------||
D||----0---------------------------2-----2---------------||
A||-----------------------------0------------------------||
E||--------------2-------3-------------------------------||

And I can’t sweep you off of your feet

e||------------------------0-----------------------------||
B||----3---------3-------0------2------------------------||
G||----0h2-------2-------0------2----2h4-----------------||
D||----0---------------------------2-----2---------------||
A||-----------------------------0------------------------||
E||--------------2-------3-------------------------------||

Will your mouth still remember the taste of my love

e||------------------------0-----------------------------||
B||----3---------3-------0------2------------------------||
G||----0h2-------2-------0------2------------------------||
D||----0-------------------------------------------------||
A||-----------------------------0------------------------||
E||--------------2-------3-------------------------------||

Will your eyes still smile from your cheeks

e||------0-----------------0-----------------------------||
B||----3---------3-------0------2------------------------||
G||----2---------2-------0------2------------------------||
D||----0-------------------------------------------------||
A||-----------------------------0------------------------||
E||--------------2-------3-------------------------------|| 2x

And darling I will be loving you till we're 70

e||------0-----------------0-----------------------------||
B||----3---------3-------0------2------------------------||
G||----2---------2-------0------2------------------------||
D||----0-------------------------------------------------||
A||-----------------------------0------------------------||
E||--------------2-------3-------------------------------||

And baby my heart could still fall as hard at 23


e||------0-----------------0-----------------------------||
B||----3---------3-------0------2------------------------||
G||----2---------2-------0------2------------------------||
D||----0-------------------------------------------------||
A||-----------------------------0------------------------||
E||--------------2-------3-------------------------------||

And I'm thinking bout how

e||------0----0----0--2------0----0----0-----------------||
B||----0----0----2----3----0----0----2----2--------------||
G||----0----0----2----2----0----0----2----2--------------||
D||----2----2----2----0----2----2----2----2--------------||
A||--------------0-------------------0----0--------------||
E||----0----0--------------0----0------------------------||

People fall in love in mysterious ways, maybe just the touch of a hand

e||------0----0----0---------0----0----0-----------------||
B||----0----0----2----3----0----0----2----2--------------||
G||----0----0----2----4----0----0----2----2--------------||
D||----2----2----2----4----2----2----2----2--------------||
A||--------------0----2--------------0----0--------------||
E||----0----0--------------0----0------------------------||

Well me I fall in love with you every single day, and I just wanna tell you I am

e||------0---------0-------0------------0-------0--------||
B||----3---------3-------0------2-----3-------3----------||
G||----2---------2-------0------2-----2-------2----------||
D||----0------------------------------0------------------||
A||-----------------------------0------------------------||
E||--------------2-------3--------------------2----------||

So honey now, take me into your loving arms

e||------0------------0-------0--------------------------||
B||----0------2-----3-------3----------------------------||
G||----0------2-----2-------2----------------------------||
D||-----------------0------------------------------------||
A||-----------0------------------------------------------||
E||----3--------------------2----------------------------||

Kiss me under the light of a thousand stars

e||------0------------0-------0-----0--------------------||
B||----0------2-----3-------3-----0----2-----------------||
G||----0------2-----2-------2-----0----2-----------------||
D||-----------------0------------------------------------||
A||-----------0------------------------0-----------------||
E||----3--------------------2-----3----------------------||

Place your head on my beating heart, and I’m thinking out loud, that maybe

e||--------------3-----2------3----------2---------------||
B||-3-----2------3-----3------3-----2----3---------------||
G||-4-----2------0-----2------0-----2----2---------------||
D||-4-----2------------0------------2----0---------------||
A||-2-----0-------------------------0--------------------||
E||--------------3------------3--------------------------||

we found love right where we are


e||------------------------0-----------------------------||
B||----3---------3-------0------2------------------------||
G||----0h2-------2-------0------2----2h4-----------------||
D||----0---------------------------2-----2---------------||
A||-----------------------------0------------------------||
E||--------------2-------3-------------------------------||

And when my hair's overgrown and my memory fades

e||------------------------0-----------------------------||
B||----3---------3-------0------2------------------------||
G||----0h2-------2-------0------2----2h4-----------------||
D||----0---------------------------2-----2---------------||
A||-----------------------------0------------------------||
E||--------------2-------3-------------------------------||

And the crowds don't remember my name

e||------------------------0-----------------------------||
B||----3---------3-------0------2------------------------||
G||----0h2-------2-------0------2----2h4-----------------||
D||----0---------------------------2-----2---------------||
A||-----------------------------0------------------------||
E||--------------2-------3-------------------------------||

When my hands don't play the strings the same way

e||------------------------0-----------------------------||
B||----3---------3-------0------2------------------------||
G||----0h2-------2-------0------2------------------------||
D||----0-------------------------------------------------||
A||-----------------------------0------------------------||
E||--------------2-------3-------------------------------||

I know you will still love me the same

e||------0-----------------0-----------------------------||
B||----3---------3-------0------2------------------------||
G||----2---------2-------0------2------------------------||
D||----0-------------------------------------------------||
A||-----------------------------0------------------------||
E||--------------2-------3-------------------------------|| 2x

Cause honey your soul could never grow old it's evergreen

e||------0-----------------0-----------------------------||
B||----3---------3-------0------2------------------------||
G||----2---------2-------0------2------------------------||
D||----0-------------------------------------------------||
A||-----------------------------0------------------------||
E||--------------2-------3-------------------------------||

And baby your smile's forever in my mind and memory

e||------0-----------------0-----------------------------||
B||----3---------3-------0------2------------------------||
G||----2---------2-------0------2------------------------||
D||----0-------------------------------------------------||
A||-----------------------------0------------------------||
E||--------------2-------3-------------------------------||

And I'm thinking bout how

e||------0----0----0--2------0----0----0-----------------||
B||----0----0----2----3----0----0----2----2--------------||
G||----0----0----2----2----0----0----2----2--------------||
D||----2----2----2----0----2----2----2----2--------------||
A||--------------0-------------------0----0--------------||
E||----0----0--------------0----0------------------------||

People fall in love in mysterious ways, maybe it’s all part of a plan

e||------0----0----0---------0----0----0-----------------||
B||----0----0----2----3----0----0----2----2--------------||
G||----0----0----2----4----0----0----2----2--------------||
D||----2----2----2----4----2----2----2----2--------------||
A||--------------0----2--------------0----0--------------||
E||----0----0--------------0----0------------------------||

Well I'll continue making the same mistakes, hoping that you'll understand

e||------0---------0-------0------------0-------0--------||
B||----3---------3-------0------2-----3-------3----------||
G||----2---------2-------0------2-----2-------2----------||
D||----0------------------------------0------------------||
A||-----------------------------0------------------------||
E||--------------2-------3--------------------2----------||

That baby now, take me into your loving arms

e||------0------------0-------0--------------------------||
B||----0------2-----3-------3----------------------------||
G||----0------2-----2-------2----------------------------||
D||-----------------0------------------------------------||
A||-----------0------------------------------------------||
E||----3--------------------2----------------------------||

Kiss me under the light of a thousand stars

e||------0------------0-------0-----0--------------------||
B||----0------2-----3-------3-----0----2-----------------||
G||----0------2-----2-------2-----0----2-----------------||
D||-----------------0------------------------------------||
A||-----------0------------------------0-----------------||
E||----3--------------------2-----3----------------------||

Place your head on my beating heart, and I’m thinking out loud, that maybe

e||--------------3-----2------3----------2---------------||
B||-3-----2------3-----3------3-----2----3---------------||
G||-4-----2------0-----2------0-----2----2---------------||
D||-4-----2------------0------------2----0---------------||
A||-2-----0-------------------------0--------------------||
E||--------------3------------3--------------------------|| 3x

we found love right where we are
Tunning: Standard (E A D G B e)
Thinking Out Loud - Ed Sheeran

Tabbed by Lovro Mirnik

This tab is not based on any performance of Ed Sheeran.
It is an merely an acoustic interpretation.
However it can still be nicely played along Eds' Capital FM Session.

The tab is arranged and created in a way Ed Sheeran could use in one of his
acoustic performances, meaning it doesn't need a capo and uses the standard tuning.

Any suggestions, criticism and praise can be left in the comment section.
You can also email me at lovromirnik@gmail.com.
____________
Intro

E|-------------------------------------------------|
B|--6--x--(6)----6sdown---2--x--9------------------|
G|--6--x---6-----6sdown---3--x--8------------------| Part #1
D|--6--x---6----(6sdown)--4--x--6-----6h8h6--------| Repeat x2
A|--4---------------------------6--6---------6-----|
e|---------4--4-----------2------------------------|

____________
When your legs don't work like they used to before,
And I cant sweep you off of your feet.
Will your mouth still remember the taste of my love?

E|--------------------------------------|
B|--6--x--(6)--x--2--x--9---------------|
G|--6--x---6---x--3--x--8---------------| Part #2.1
D|--6--x---6---x--4--x--6-----6h8h6-----| Repeat x3
A|--4-------------------6--6---------6--|
e|---------4------2---------------------|

Will your eyes still smile from your cheeks?

E|----------------------------|
B|--6--x--(6)--x--2--x--9--x--|
G|--6--x---6---x--3--x--8--x--| Part #2.2
D|--6--x---6---x--4--x--6--x--| Repeat x1
A|--4-------------------6-----|
e|---------4------2-----------|

____________
And darling I will be loving you 'til we're seventy.
And baby my heart could still fall as hard at twenty-three. And I'm thinking 'bout how.

E|----------------------------------------------------------------------|
B|--6--x--(6)--x--2--x--9--x----------6--x--(6)----6sdown---2--x--9--x--|
G|--6--x---6---x--3--x--8--x----------6--x---6-----6sdown---3--x--8--x--| Part #3
D|--6--x---6---x--4--x--6--x----------6--x---6----(6sdown)--4--x--6--x--| Repeat x2
A|--4-------------------6-------------4---------------------------6-----|
e|---------4------2--------------------------4--4-----------2-----------|

____________
People fall in love in mysterious ways.

E|----------------------------|
B|--11--x--11--x--9--x--6--x--|
G|--10--x--10--x--8--x--6--x--| Part #4.1
D|--8---x--8---x--6--x--6--x--| Repeat x1
A|-------------------x--4-----|
e|----------------------------|

Maybe just the touch of a hand.

E|----------------------------|
B|--11--x--11--x--9--x--9--x--|
G|--10--x--10--x--8--x--8--x--| Part #4.2
D|--8---x--8---x--6--x--6--x--| Repeat x1
A|----------------------------|
e|----------------------------|

Well me I fall in love with you every single day.

E|-------------------------------|
B|--11--x--11--x--9--x--6-----x--|
G|--10--x--10--x--8--x--6-----x--| Part #4.3
D|--8---x--8---x--6--x--6-----x--| Repeat x1
A|--8---x--8-----------(6)h8-----|
e|----------------------6--------|

And I just wanna tell you I am.

E|----------------------------|
B|--11--x--11--x--9--x--9--x--|
G|--10--x--10--x--8--x--8--x--| Part #4.4
D|--8---x--8---x--6--x--6--x--| Repeat x1
A|----------------------------|
e|----------------------------|

____________
So honey now,
take me into your loving arms,
kiss me under the light of a thousand stars,
place your head on my beating heart,
I'm thinking out loud.

E|------------------------------------|
B|--6--x--(6)----6sdown---2--x--9--x--|
G|--6--x---6-----6sdown---3--x--8--x--| Part #5
D|--6--x---6----(6sdown)--4--x--6--x--| Repeat x4
A|--4---------------------------6-----|
e|---------4--4-----------2-----------|

____________
That maybe we found love right where we are.

E|--------------------------------|
B|--11---9---7---6---4-----4---6--|
G|--10---8---6---6---5-----5---6--| Part #6
D|--8----6---4---6---6-----6---6--| Repeat x1
A|---------------4------4------4--|
e|-------------------4------------|

____________
When my hair's all but gone and my memory fades,
and the crowds don't remember my name.
When my hands don't play the strings the same way,

Part #2.1 | Repeat x3

I know you will still love me the same.

Part #2.2 | Repeat x1

____________
Cause honey your soul could never grow old it's evergreen.
And baby your smile's forever in my mind and memory. I'm thinking 'bout how.

Part #3 | Repeat x2

____________
People fall in love in mysterious ways.

Part #4.1 | Repeat x1

And maybe it's all part of a plan.

Part #4.2 | Repeat x1

Well I'll just keep on making the same mistakes.

Part #4.3 | Repeat x1

Hoping that you'll understand.

Part #4.4 | Repeat x1

____________
That baby now, oooooh,
take into your loving arms,
kiss me under the light of a thousand stars,
place your head on my beating heart,
I'm thinking out loud.

Part #5 | Repeat x4

____________
That baby we found love right where we are.

Part #6 | Repeat x1

____________
Solo

Part #1 | Repeat x3
Part #5 | Repeat x1

____________
So baby now,
take me into your loving arms,
kiss me under the light of a thousand stars, oh darlin',
place your head on my beating heart,
I'm thinking out loud.

Part #5 | Repeat x4

____________
That maybe we found love right where we are.
And baby we found love right where we are.

E|--------------------------------|
B|--11---9---7---6---4-----4---6--|
G|--10---8---6---6---5-----5---6--| Part #7.1
D|--8----6---4---6---6-----6---6--| Repeat x2
A|---------------4------4------4--|
e|-------------------4------------|

And we found love right where we are.

E|-----------------------------------|
B|--11---9---7---6---4-----4------6--|
G|--10---8---6---6---5-----5-----6---| Part #7.2
D|--8----6---4---6---6-----6----6----| Repeat x1
A|--8----6-------4------4------4-----|
e|-------------------4---------------|
Tunning: Standard (E A D G B e)
-------------------------------------------------------------------------------
Thinking out loud - Ed Sheeran
-------------------------------------------------------------------------------
Tabbed by: Vavom1
E-mail: sportymoshe@hotmail.co.uk

Tuning:Standard
No strumming
six x's in a line means slap strings
the words are in line with the tab that's why there are so many spaces
This is the first half of the song the rest of the song is exactly the same.
Enjoy


[Intro]

e|--2-----x--------------------x--------------x------x------------------------------------------------|
B|--2-----x--3-----------------x------------0-x---2--x--2/4-------------------------------------------|
G|--0h2---x--2-----------------x------------0-x---2--x--2/4-------------------------------------------|
D|--------x--0-----------------x------------0-x---2--x--2/4-------------------------------------------|
A|--------x--------------------x--------------x------x------------------------------------------------|
E|--------x--2-----------------x--------0h3---x------x------------------------------------------------|
when your legs don't work like they used to before

e|--2-----x--------------------x--------------x------x------------------------------------------------|
B|--2-----x--3-----------------x------------0-x---2--x--2/4-------------------------------------------|
G|--0h2---x--2-----------------x------------0-x---2--x--2/4-------------------------------------------|
D|--------x--0-----------------x------------0-x---2--x--2/4-------------------------------------------|
A|--------x--------------------x--------------x------x------------------------------------------------|
E|--------x--2-----------------x--------0h3---x------x------------------------------------------------|
and I can't sweep you off of your feet

e|--2-----x--------------------x--------------x------x------------------------------------------------|
B|--2-----x--3-----------------x------------0-x---2--x--2/4-------------------------------------------|
G|--0h2---x--2-----------------x------------0-x---2--x--2/4-------------------------------------------|
D|--------x--0-----------------x------------0-x---2--x--2/4-------------------------------------------|
A|--------x--------------------x--------------x------x------------------------------------------------|
E|--------x--2-----------------x--------0h3---x------x------------------------------------------------|
will your mouth still remember the taste of my love

e|--2-----x--------------------x--------------x------x------------------------------------------------|
B|--2-----x--3-----------------x------------0-x---2--x--2/4-------------------------------------------|
G|--0h2---x--2-----------------x------------0-x---2--x--2/4-------------------------------------------|
D|--------x--0-----------------x------------0-x---2--x--2/4-------------------------------------------|
A|--------x--------------------x--------------x------x------------------------------------------------|
E|--------x--2-----------------x--------0h3---x------x------------------------------------------------|
Will your eyes still smile from your cheeks


[Chorus]

e|-----------2-----x--------------------x--------------x------x---------------------------------------|
B|-----------2-----x--3-----------------x------------0-x---2--x---------------------------------------|
G|-----------0h2---x--2-----------------x------------0-x---2--x---------------------------------------|
D|-----------------x--0-----------------x------------0-x---2--x---------------------------------------|
A|-----------------x--------------------x--------------x------x---------------------------------------|
E|-----------------x--2-----------------x--------0h3---x------x---------------------------------------|
And, darling, I will be loving you 'til we're 70

e|-----------2-----x--------------------x--------------x------x---------------------------------------|
B|-----------2-----x--3-----------------x------------0-x---2--x---------------------------------------|
G|-----------0h2---x--2-----------------x------------0-x---2--x---------------------------------------|
D|-----------------x--0-----------------x------------0-x---2--x---------------------------------------|
A|-----------------x--------------------x--------------x------x---------------------------------------|
E|-----------------x--2-----------------x--------0h3---x------x---------------------------------------|
And, baby, my heart could still fall as hard at 23

e|-----------2-----x--------------------x--------------x------x---------------------------------------|
B|-----------2-----x--3-----------------x------------0-x---2--x---------------------------------------|
G|-----------0h2---x--2-----------------x------------0-x---2--x---------------------------------------|
D|-----------------x--0-----------------x------------0-x---2--x---------------------------------------|
A|-----------------x--------------------x--------------x------x---------------------------------------|
E|-----------------x--2-----------------x--------0h3---x------x---------------------------------------|
And I'm thinking 'bout how
e|-------x----x-------------------2---x-|
B|-------x----x--------2----------3---x-|
G|---0---x-0--x--------2----------2---x-|
D|---2---x-2--x--------2--------------x-|
A|-0-2---x-2--x-----------------------x-|
E|-------x----x-----------------------x-|
people fall in love in mysterious ways

e|-------x------x----------------x-|
B|-------x------x---------2--2---x-|
G|---0---x-0----x---------2--2---x-|
D|---2---x-2----x---------2--2---x-|
A|-0-2---x-2----x----------------x-|
E|-------x------x----------------x-|
Maybe just the touch of a hand

e|-------x-----x---------------------------------x-|
B|-------x-----x-------------------2----------3--x-|
G|---0---x-0---x-------------------2----------4--x-|
D|---2---x-2---x-------------------2----------4--x-|
A|-0-2---x-2---x---------------------------------x-|
E|-------x-----x---------------------------------x-|
Well, me—I fall in love with you every single day

e|------x----x-------------0-0-0-------------------|
B|------x----x-------------2-2-2-------------------|
G|---0--x-0--x-------------2-2-2--strum up 3 times-|
D|---2--x-2--x-------------2-2-2-------------------|
A|-0-2--x-2--x-------------0-0-0-------------------|
E|------x----x-------------0-0-0-------------------|
And I just wanna tell you I am

e|-----------2-----x--------------------x--------------x------x---------------------------------------|
B|-----------2-----x--3-----------------x------------0-x---2--x---------------------------------------|
G|-----------0h2---x--2-----------------x------------0-x---2--x---------------------------------------|
D|-----------------x--0-----------------x------------0-x---2--x---------------------------------------|
A|-----------------x--------------------x--------------x------x---------------------------------------|
E|-----------------x--2-----------------x--------0h3---x------x---------------------------------------|
So honey now take me into your loving

e|-----------2-----x--------------------x--------------x------x---------------------------------------|
B|-----------2-----x--3-----------------x------------0-x---2--x---------------------------------------|
G|-----------0h2---x--2-----------------x------------0-x---2--x---------------------------------------|
D|-----------------x--0-----------------x------------0-x---2--x---------------------------------------|
A|-----------------x--------------------x--------------x------x---------------------------------------|
E|-----------------x--2-----------------x--------0h3---x------x---------------------------------------|
arms Kiss me under the light of a

e|-----------2-----x--------------------x--------------x------x---------------------------------------|
B|-----------2-----x--3-----------------x------------0-x---2--x---------------------------------------|
G|-----------0h2---x--2-----------------x------------0-x---2--x---------------------------------------|
D|-----------------x--0-----------------x------------0-x---2--x---------------------------------------|
A|-----------------x--------------------x--------------x------x---------------------------------------|
E|-----------------x--2-----------------x--------0h3---x------x---------------------------------------|
thousand stars Place your head on my beating

e|-----------2-----x--------------------x--------------x------x---------------------------------------|
B|-----------2-----x--3-----------------x------------0-x---2--x---------------------------------------|
G|-----------0h2---x--2-----------------x------------0-x---2--x---------------------------------------|
D|-----------------x--0-----------------x------------0-x---2--x---------------------------------------|
A|-----------------x--------------------x--------------x------x---------------------------------------|
E|-----------------x--2-----------------x--------0h3---x------x---------------------------------------|
heart I'm thinking out loud

e|----------------------------------------2-----------------------------2-------|
B|---------3----2----0----0-----0-----2---3---strum down once to finish-3-------|
G|---------4----2----0----2-----0-----2---2-----------------------------2-------|
D|---------4----2----0----0-----2-----2-----------------------------------------|
A|------------------------------------------------------------------------------|
E|------------------------------------------------------------------------------|
That maybe we found love right where we are

************************************

| x Dead note
| h Hammer-on
| / Slide up

************************************
Song info
Thinking Out Loud
Ed Sheeran
2001
  • Pop
  • Rock
  • Pop Rock
  • Vocal
Alternative tracks
Similar songs
Strange Way - Firefall
We Belong - Pat Benatar
Behind Blue Eyes - Limp Bizkit

Hi! Hope you enjoy backing track experience.
If you want to help us in the development of the project, feel free to donate!