The Final Countdown - Europe
00:00 / 00:00
Tabs and lyrics
Tunning: Standard (E A D G B e)
Standard Tuning
117 Bpm
Synth arranged for guitar

[Intro]
e|-9-7-9----10-9-10-9-7--10-9-10---------------------------|
B|-------7-----------------------7--12-10-12-10-9-12-10----|
G|---------------------------------------------------------|(x4)
D|---------------------------------------------------------|
A|---------------------------------------------------------|
E|---------------------------------------------------------|

e|----------------9-------------10-9--9-10--9-7-9----|
B|-9-10-12--10-12---12-10-9--------------------------|
G|--------------------------11-----------------------|
D|---------------------------------------------------|
A|---------------------------------------------------|
E|---------------------------------------------------|

[Riff 1] (x2)
PM-----------------------------------------------------------|
e|--------------------------------------------------------------|
B|--------------------------------------------------------------|
G|--------------------------------------------------------------|
D|--------------------------------------------------------------|
A|-----------------------------5--5-5-5--5-5-5--5-5-5--5-5------|
E|-2--2-2-2--2-2-2--2-2-2--2-2----------------------------------|

PM-----------------------------------------------------------|
e|--------------------------------------------------------------|
B|--------------------------------------------------------------|
G|--------------------------------------------------------------|
D|--------------------------------------------------------------|
A|-2--2-2-2--2-2-2--2-2-2--2-2----------------------------------|
E|-----------------------------0--0-0-0--0-0-0--0-0-0--0-0------|

[Riff 2]
e|-------------------------------|
B|-------------------------------|
G|-------------------------------|
D|-------------------------------|
A|--------2----2-4-2-----5--4----|
E|-2--4-5----5-------5-4---------|

[Riff 3]
e|----------------------------------------------|
B|----------------------------------------------|
G|---------------------2-4----------------------|
D|-4----------2-4------2-4--2-4----2-4--6--7----|
A|-4------X\--2-4------0-2--2-4----2-4--7--7----|
E|-2------X\--0-2-----------0-2----0-2--4--5----|

[Riff 1]
PM-----------------------------------------------------------|
e|--------------------------------------------------------------|
B|--------------------------------------------------------------|
G|--------------------------------------------------------------|
D|--------------------------------------------------------------|
A|-5--5-5-5--5-5-5--5-5-5--5-5-7--7-7-7--7-7-7--7-7-7--7-7------|
E|--------------------------------------------------------------|

PM-----------------------------------------------------------|
e|--------------------------------------------------------------|
B|--------------------------------------------------------------|
G|--------------------------------------------------------------|
D|--------------------------------------------------------------|
A|--------------------------------------------------------------|
E|-5--5-5-5--5-5-4--4-4-4--4-4-2--2-2-2--2-2-0--0-0-0--0-0------|

PM--------------------------------------------------------------------------|
e|-----------------------------------------------------------------------------|
B|-----------------------------------------------------------------------------|
G|-----------------------------------------------------------------------------|
D|----------------------------------------------------------6-6--6-6--6-(6)\---|
A|-5--5-5-5--5-5-5--5-5-5--5-5-4--4-4-4--4-4-4--4-4-4--4-4--7-7--7-7--7-(7)\---|
E|----------------------------------------------------------4-4--4-4--4-(4)\---|

[Riff 1] (x2)
PM-----------------------------------------------------------|
e|--------------------------------------------------------------|
B|--------------------------------------------------------------|
G|--------------------------------------------------------------|
D|--------------------------------------------------------------|
A|-----------------------------5--5-5-5--5-5-5--5-5-5--5-5------|
E|-2--2-2-2--2-2-2--2-2-2--2-2----------------------------------|

PM-----------------------------------------------------------|
e|--------------------------------------------------------------|
B|--------------------------------------------------------------|
G|--------------------------------------------------------------|
D|--------------------------------------------------------------|
A|-2--2-2-2--2-2-2--2-2-2--2-2----------------------------------|
E|-----------------------------0--0-0-0--0-0-0--0-0-0--0-0------|

[Riff 3b]
e|-------------------------------|
B|-------------------------------|
G|-------2-4---------------------|
D|-4-----2-4--2-4---2-4--6--7----|
A|-4-----0-2--2-4---2-4--7--7----|
E|-2----------0-2---0-2--4--5----|

[Riff 4]
PM-----------------------------------------------------------|
e|--------------------------------------------------------------|
B|--------------------------------------------------------------|
G|--------------------------------------------------------------|
D|--------------------------------------------------------------|
A|-5--5-5-5--5-5-5--5-5-5--5-5-7--7-7-7--7-7-7--7-7-7--7-7------|
E|--------------------------------------------------------------|

PM-----------------------------------------------------------|
e|--------------------------------------------------------------|
B|--------------------------------------------------------------|
G|--------------------------------------------------------------|
D|--------------------------------------------------------------|
A|--------------------------------------------------------------|
E|-5--5-5-5--5-5-4--4-4-4--4-4-2--2-2-2--2-2-0--0-0-0--0-0------|

PM--------------------------------------------------------------------------|
e|-----------------------------------------------------------------------------|
B|-----------------------------------------------------------------------------|
G|-----------------------------------------------------------------------------|
D|----------------------------------------------------------6-6--6-6--6-(6)\---|
A|-5--5-5-5--5-5-5--5-5-5--5-5-4--4-4-4--4-4-4--4-4-4--4-4--7-7--7-7--7-(7)\---|
E|----------------------------------------------------------4-4--4-4--4-(4)\---|

[Riff 1] (x2)
PM-----------------------------------------------------------|
e|--------------------------------------------------------------|
B|--------------------------------------------------------------|
G|--------------------------------------------------------------|
D|--------------------------------------------------------------|
A|-----------------------------5--5-5-5--5-5-5--5-5-5--5-5------|
E|-2--2-2-2--2-2-2--2-2-2--2-2----------------------------------|

PM-----------------------------------------------------------|
e|--------------------------------------------------------------|
B|--------------------------------------------------------------|
G|--------------------------------------------------------------|
D|--------------------------------------------------------------|
A|-2--2-2-2--2-2-2--2-2-2--2-2----------------------------------|
E|-----------------------------0--0-0-0--0-0-0--0-0-0--0-0------|

[Riff 2]
e|-------------------------------|
B|-------------------------------|
G|-------------------------------|
D|-------------------------------|
A|--------2----2-4-2-----5--4----|
E|-2--4-5----5-------5-4---------|

e|------|
B|------|
G|------|
D|-4----|
A|-4----|
E|-2----|

[Solo]
e|----10-14p10----10-14p10----10-14p10----10-14p10----10-14p10----12-15p12----12-15p12----12-15p12----12-|
B|-12----------12----------12----------12----------12----------14----------14----------14----------14----|
G|-------------------------------------------------------------------------------------------------------|
D|-------------------------------------------------------------------------------------------------------|
A|-------------------------------------------------------------------------------------------------------|
E|-------------------------------------------------------------------------------------------------------|

e|-15p12----12-15p12--|
B|-------14-----------|
G|--------------------|
D|--------------------|
A|--------------------|
E|--------------------|

e|----14-17p14----14-17p14----14-17p14----14-17p14----14-17\-----------------------------------------------|
B|-15----------15----------15----------15----------15---------------12----12-12-------12-------------------|
G|------------------------------------------------------------12-14----12-------12-14----14-12-11-14-12-11-|
D|---------------------------------------------------------------------------------------------------------|
A|---------------------------------------------------------------------------------------------------------|
E|---------------------------------------------------------------------------------------------------------|

~ ~ (tremolo bar)
e|-------------------------------------7------------7------------------------------|
B|-------8-8-8-7h8p7-------------10b12---7-10---------10-7-9-6-7-------------------|
G|----9--------------9-7-7-6------------------10b11--------------10-9-7---9---7-9--|
D|-12------------------------9-7----------------------------------------9---9------|
A|---------------------------------------------------------------------------------|
E|---------------------------------------------------------------------------------|

e|----10-14p10----10-14p10----10-14p10----10-14p10----10-14p10----12-15p12----12-15p12----12-15p12----12-|
B|-12----------12----------12----------12----------12----------14----------14----------14----------14----|
G|-------------------------------------------------------------------------------------------------------|
D|-------------------------------------------------------------------------------------------------------|
A|-------------------------------------------------------------------------------------------------------|
E|-------------------------------------------------------------------------------------------------------|

e|-15p12----12-15p12--|
B|-------14-----------|
G|--------------------|
D|--------------------|
A|--------------------|
E|--------------------|

e|----14-17p14----14-17p14----14-17p14----14-17p14----14-17\-----------------------------------------------|
B|-15----------15----------15----------15----------15---------------12----12-12-------12-------------------|
G|------------------------------------------------------------12-14----12-------12-14----14-12-11-14-12-11-|
D|---------------------------------------------------------------------------------------------------------|
A|---------------------------------------------------------------------------------------------------------|
E|---------------------------------------------------------------------------------------------------------|

~ ~ (tremolo bar)
e|--------------------------------------------7---------|
B|-------8-8-8-7h8p7-----10b12-10-----7--7b9----7b9\----|
G|----9--------------9-7----------7-9-------------------|
D|-12---------------------------------------------------|
A|------------------------------------------------------|
E|------------------------------------------------------|

[Riff 5] (x2)
e|-------------------|
B|-------------------|
G|----6-7-----7-9----|
D|-4--6-7--9--7-9----|
A|-4--4-5--9--5-7----|
E|-2-------7---------|

[Riff 2]
e|-------------------------------|
B|-------------------------------|
G|-------------------------------|
D|-------------------------------|
A|--------2----2-4-2-----5--4----|
E|-2--4-5----5-------5-4---------|


[Riff 1 X 2]

PM-----------------------------------------------------------|
e|--------------------------------------------------------------|
B|--------------------------------------------------------------|
G|--------------------------------------------------------------|
D|--------------------------------------------------------------|
A|-----------------------------5--5-5-5--5-5-5--5-5-5--5-5------|
E|-2--2-2-2--2-2-2--2-2-2--2-2----------------------------------|

PM-----------------------------------------------------------|
e|--------------------------------------------------------------|
B|--------------------------------------------------------------|
G|--------------------------------------------------------------|
D|--------------------------------------------------------------|
A|-2--2-2-2--2-2-2--2-2-2--2-2----------------------------------|
E|-----------------------------0--0-0-0--0-0-0--0-0-0--0-0------|

[Riff 2b]
e|--------------------------------------|
B|--------------------------------------|
G|-----------------------------6---6----|
D|-----------------------------6-6-6----|
A|--------2----2-4-2-----5--4--4-4-4----|
E|-2--4-5----5-------5-4----------------|

[Riff 1] (x2)
PM-----------------------------------------------------------|
e|--------------------------------------------------------------|
B|--------------------------------------------------------------|
G|--------------------------------------------------------------|
D|--------------------------------------------------------------|
A|-----------------------------5--5-5-5--5-5-5--5-5-5--5-5------|
E|-2--2-2-2--2-2-2--2-2-2--2-2----------------------------------|

PM-----------------------------------------------------------|
e|--------------------------------------------------------------|
B|--------------------------------------------------------------|
G|--------------------------------------------------------------|
D|--------------------------------------------------------------|
A|-2--2-2-2--2-2-2--2-2-2--2-2----------------------------------|
E|-----------------------------0--0-0-0--0-0-0--0-0-0--0-0------|

[Riff 2b]
e|--------------------------------------|
B|--------------------------------------|
G|-----------------------------6---6----|
D|-----------------------------6-6-6----|
A|--------2----2-4-2-----5--4--4-4-4----|
E|-2--4-5----5-------5-4----------------|

[Riff 1] (x2) (Fade Out)
PM-----------------------------------------------------------|
e|--------------------------------------------------------------|
B|--------------------------------------------------------------|
G|--------------------------------------------------------------|
D|--------------------------------------------------------------|
A|-----------------------------5--5-5-5--5-5-5--5-5-5--5-5------|
E|-2--2-2-2--2-2-2--2-2-2--2-2----------------------------------|

PM-----------------------------------------------------------|
e|--------------------------------------------------------------|
B|--------------------------------------------------------------|
G|--------------------------------------------------------------|
D|--------------------------------------------------------------|
A|-2--2-2-2--2-2-2--2-2-2--2-2----------------------------------|
E|-----------------------------0--0-0-0--0-0-0--0-0-0--0-0------|


***********************************

| \ Slide down
| h Hummer-on
| p Pull-off
| ~ Vibrato
|(n) Ghost note
| x Dead note
| b Bend
| PM Palm Mute

***********************************
Tunning: Standard (E A D G B e)
The Final Countdown -- Europe
(The Solo)
Tabbed by Chady MAALOUF

Tab Explanation:
h= hammer on
p= pull off
\= slide to next note
^= vibrato
b= bend up to (xx) note
r= release (after bending)
H= hold note between () while bending

Go On a full distortion guitar...u gotta be fast...

E-[-------14-]----[-------15-]----[-------17-]-----------------------------|
B-[-12h15----]----[-14h17----]----[-15h19----]-----------------------------|
G-[----------]x5--[----------]x5--[----------]x5---------------------------|
D-[----------]----[----------]----[----------]-----------------------------|
A-[----------]----[----------]----[----------]-----------------------------|
E-[----------]----[----------]----[----------]-----------------------------|

E---------------7----------------------------------------------------------|
B-10b(12)--8h10--10-8-10p8\7---------8-8-8-8--7----------------------------|
G------------------------------9^^^^^-----------9--7-7--6------------------|
D----------------------------------------------------------9--7------------|
A--------------------------------------------------------------------------|
E--------------------------------------------------------------------------|

(now these aren't too correct, but I tried hard to listen to that part of
the solo, and that's all I could catch...he's damn too fast! play these
fast and it will sound like almost the same melody...)
E---------------------------7----------------------------------------------|
B-10b(12)----10br(12)----7----10p7--10p7---7-------------------------------|
G---------9-----------9------------------9----9p7--9p7-----7--9br(11)p7--9-|
D-------------------------------------------------------9------------------|
A--------------------------------------------------------------------------|
E--------------------------------------------------------------------------|

E-[-------14-]----[-------15-]----[-------17-]-----------------------------|
B-[-12h15----]----[-14h17----]----[-15h19----]-----------------------------|
G-[----------]x5--[----------]x5--[----------]x5---------------------------|
D-[----------]----[----------]----[----------]-----------------------------|
A-[----------]----[----------]----[----------]-----------------------------|
E-[----------]----[----------]----[----------]-----------------------------|

E---------------7----------------------------------------------------------|
B-10b(12)--8h10--10-8-10p8\7--------8-8-8-8--7------10b(12)-10-------------|
G------------------------------9^^^^----------9--7-------------------------|
D--------------------------------------------------------------------------|
A--------------------------------------------------------------------------|
E--------------------------------------------------------------------------|

E--------------------------------------------------------------------------|
B-----------------------------12-------------------------------------------|
G-7--9--9b(11)^^^----11bH(13)----(13)r11-----------------------------------|
D--------------------------------------------------------------------------|
A--------------------------------------------------------------------------|
E--------------------------------------------------------------------------|
END Solo


U want the great melody of the keyboard? here it is, if u wanna
play it on your guitar:
E-9p7-9----10p9--10-9-7----10p9-10-------7------7--------7--------------|
B-------7---------------------------7\9-----10-----10-9-----10----------|
G-----------------------------------------------------------------------|
D-----------------------------------------------------------------------|
A-----------------------------------------------------------------------|
E-----------------------------------------------------------------------|

...and the other part:
E-------7-------7--9--7-------------10--9----9h10p9--7--9---------------|
B-9-10------10-----------10-9--7----------------------------------------|
G-----------------------------------------------------------------------|
D-----------------------------------------------------------------------|
A-----------------------------------------------------------------------|
E-----------------------------------------------------------------------|

Any comments? email me hellfire_1982@hotmail.com
ChagZ :)
Tunning: Standard (E A D G B e)
Standard Tuning

E-[-------14-]----[-------15-]----[-------17-]------------------------|
B-[-12h15----]----[-14h17----]----[-15h19----]------------------------|
G-[----------]x5--[----------]x5--[----------]x5----------------------|
D-[----------]----[----------]----[----------]------------------------|
A-[----------]----[----------]----[----------]------------------------|
E-[----------]----[----------]----[----------]------------------------|

E---------------7-----------------------------------------------------|
B-10b(12)--8h10--10-8-10p8\7---------8-8-8-8--7-----------------------|
G------------------------------9^^^^^-----------9--7-7--6-------------|
D----------------------------------------------------------9--7-------|
A---------------------------------------------------------------------|
E---------------------------------------------------------------------|

the solo
E---------------------------7------------------------------------------|
B-10b(12)----10br(12)----7----10p7--10p7---7---------------------------|
G---------9-----------9------------------9---9p7--9p7---7--9br(11)p7-9-|
D------------------------------------------------------9---------------|
A----------------------------------------------------------------------|
E----------------------------------------------------------------------|


E-[-------14-]----[-------15-]----[-------17-]------------------------|
B-[-12h15----]----[-14h17----]----[-15h19----]------------------------|
G-[----------]x5--[----------]x5--[----------]x5----------------------|
D-[----------]----[----------]----[----------]------------------------|
A-[----------]----[----------]----[----------]------------------------|
E-[----------]----[----------]----[----------]------------------------|

E---------------7-----------------------------------------------------|
B-10b(12)--8h10--10-8-10p8\7--------8-8-8-8--7------10b(12)-10--------|
G------------------------------9^^^^----------9--7--------------------|
D---------------------------------------------------------------------|
A---------------------------------------------------------------------|
E---------------------------------------------------------------------|

E---------------------------------------------------------------------|
B-----------------------------12--------------------------------------|
G-7--9--9b(11)^^^----11bH(13)----(13)r11------------------------------|
D---------------------------------------------------------------------|
A---------------------------------------------------------------------|
E---------------------------------------------------------------------|
END Solo

E-9p7-9----10p9--10-9-7----10p9-10-------7------7--------7------------|
B-------7---------------------------7\9-----10-----10-9-----10--------|
G---------------------------------------------------------------------|
D---------------------------------------------------------------------|
A---------------------------------------------------------------------|
E---------------------------------------------------------------------|

...and the other part:
E-------7-------7--9--7-------------10--9----9h10p9--7--9-------------|
B-9-10------10-----------10-9--7--------------------------------------|
G---------------------------------------------------------------------|
D---------------------------------------------------------------------|
A---------------------------------------------------------------------|
E---------------------------------------------------------------------|
Tunning: Standard (E A D G B e)
Europe – Final Countdown

Firstly check out/rate my other tabs thanks!

In all it's epicness, IT'S THE FINAL COUNTDOWN!!! This is very accurate &
precise! I really dont know why there wasnt an accurate one up already but
here ya go! Contact me at: rattlehead.coolio@hotmail.com


Intro:
e|----------------------------------------------------------|
B|----------------------------------------------------------|
G|----------------------------------------------------------|
D|-----------------------------7--7-7-7--7-7-7--7-7-7--7-7--|
A|-4--4-4-4--4-4-4--4-4-4--4-4-5--5-5-5--5-5-5--5-5-5--5-5--|
E|-2--2-2-2--2-2-2--2-2-2--2-2------------------------------|
PM|-------------------------------------------------------|


e|----------------------------------------------------------|
B|----------------------------------------------------------|
G|----------------------------------------------------------|
D|-4--4-4-4--4-4-4--4-4-4--4-4------------------------------|
A|-2--2-2-2--2-2-2--2-2-2--2-2-2--2-2-2--2-2-2--2-2-2--2-2--|
E|-----------------------------0--0-0-0--0-0-0--0-0-0--0-0--|Repeat!
PM|-------------------------------------------------------|

e|--------------------------------------|
B|--------------------------------------|
G|-------------------6------------------|
D|-------------------6-------4----------|
A|-4--6---7-6-4-6-2--4-------4----------|
E|-2--4---5-4-2-4-0----------2----------|

Verse I:
e|----------------------------------------------|
B|----------------------------------------------|
G|---------------------4------------------------|
D|-------4-----------2-4----4------4-----7------|
A|-X\--2-4-----------0-2--2-4----2-4--7--7------|
E|-X\--0-2----------------0-2----0-2--4--5------|

e|----------------------------------------------------------|
B|----------------------------------------------------------|
G|----------------------------------------------------------|
D|-7--7-7-7--7-7-7--7-7-7--7-7-9--9-9-9--9-9-9--9-9-9--9-9--|
A|-5--5-5-5--5-5-5--5-5-5--5-5-7--7-7-7--7-7-7--7-7-7--7-7--|
E|----------------------------------------------------------|
PM|-------------------------------------------------------|

e|----------------------------------------------------------|
B|----------------------------------------------------------|
G|----------------------------------------------------------|
D|----------------------------------------------------------|
A|-7--7-7-7--7-7-6--6-6-6--6-6-4--4-4-4--4-4-2--2-2-2--2-2--|
E|-5--5-5-5--5-5-4--4-4-4--4-4-2--2-2-2--2-2-0--0-0-0--0-0--|
PM|------------------------------------------------------|

e|-------------------------------------------------------------------------|
B|-------------------------------------------------------------------------|
G|-------------------------------------------------------------------------|
D|-7--7-7-7--7-7-7--7-7-7--7-7-6--6-6-6--6-6-6--6-6-6--6-6-----------------|
A|-5--5-5-5--5-5-5--5-5-5--5-5-4--4-4-4--4-4-4--4-4-4--4-4--7-7--7--7--7-\-|
E|----------------------------------------------------------4-4--4--4--4-\-|
PM|-------------------------------------------------------|

Chorus I:
e|----------------------------------------------------------|
B|----------------------------------------------------------|
G|----------------------------------------------------------|
D|-----------------------------7--7-7-7--7-7-7--7-7-7--7-7--|
A|-4--4-4-4--4-4-4--4-4-4--4-4-5--5-5-5--5-5-5--5-5-5--5-5--|
E|-2--2-2-2--2-2-2--2-2-2--2-2------------------------------|
PM|-------------------------------------------------------|

e|----------------------------------------------------------|
B|----------------------------------------------------------|
G|----------------------------------------------------------|
D|-4--4-4-4--4-4-4--4-4-4--4-4------------------------------|
A|-2--2-2-2--2-2-2--2-2-2--2-2-2--2-2-2--2-2-2--2-2-2--2-2--|
E|-----------------------------0--0-0-0--0-0-0--0-0-0--0-0--|Repeat!
PM|-------------------------------------------------------|

Verse II: same as Verse I except without the pick slide at the beginning!

Chorus II: Same as other! With this afterwards:
e|--------------------------------------|
B|--------------------------------------|
G|-------------------6------------------|
D|-------------------6-------4----------|
A|-4--6---7-6-4-6-2--4-------4----------|
E|-2--4---5-4-2-4-0----------2----------|

Solo:
e|----10-14p10----10-14p10----10-14p10----10-14p10----10-14p10--|
B|-12----------12----------12----------12----------12-----------|
G|--------------------------------------------------------------|
D|--------------------------------------------------------------|
A|--------------------------------------------------------------|
E|--------------------------------------------------------------|

e|----12-15p12----12-15p12----12-15p12----12-15p12----12-15p12--|
B|-14----------14----------14----------14----------14-----------|
G|--------------------------------------------------------------|
D|--------------------------------------------------------------|
A|--------------------------------------------------------------|
E|--------------------------------------------------------------|

e|----14-17p14----14-17p14----14-17p14----14-17p14----14-17p14--|
B|-15----------15----------15----------15----------15-----------|
G|--------------------------------------------------------------|
D|--------------------------------------------------------------|
A|--------------------------------------------------------------|
E|--------------------------------------------------------------|

e|---7-10p7---7-10p7------7------------------|
B|-8--------8--------8-10---10-8h10p8p7------|
G|--------------------------------------9~---|
D|-------------------------------------------|
A|-------------------------------------------|
E|-------------------------------------------|

e|----------------------------------------------7---------------------------------------|
B|-8-8-8-7------------------------------10(12)~---10p7------------10p7------------------|
G|----------9-7--7d~-(6d~)-(4d~)-(2d~)-----------------9(11)(9)p7------9p7-9p7---7-9~~~-|
D|-----------------------------------------------------------------------------9--------|
A|--------------------------------------------------------------------------------------|
E|--------------------------------------------------------------------------------------|

e|----10-14p10----10-14p10----10-14p10----10-14p10----10-14p10--|
B|-12----------12----------12----------12----------12-----------|
G|--------------------------------------------------------------|
D|--------------------------------------------------------------|
A|--------------------------------------------------------------|
E|--------------------------------------------------------------|

e|----12-15p12----12-15p12----12-15p12----12-15p12----12-15p12--|
B|-14----------14----------14----------14----------14-----------|
G|--------------------------------------------------------------|
D|--------------------------------------------------------------|
A|--------------------------------------------------------------|
E|--------------------------------------------------------------|

e|----14-17p14----14-17p14----14-17p14----14-17p14----14-17p14--|
B|-15----------15----------15----------15----------15-----------|
G|--------------------------------------------------------------|
D|--------------------------------------------------------------|
A|--------------------------------------------------------------|
E|--------------------------------------------------------------|

e|---7-10p7---7-10p7------7------------------|
B|-8--------8--------8-10---10-8h10p8p7------|
G|--------------------------------------9~---|
D|-------------------------------------------|
A|-------------------------------------------|
E|-------------------------------------------|

e|----------------------------------------------------------------------|
B|-8-8-8-7-----10(12)-10~--------7(7)-t~~~---9(9)~~~~-12-9(9)~~~~~~---\-|
G|---------9-7------------7~-9~--9(11)t~~~---11(13)~~----11(13)~~~~---\-|
D|----------------------------------------------------------------------|
A|----------------------------------------------------------------------|
E|----------------------------------------------------------------------|End Solo!

Bridge:
(x2)
e|---------------------------------------|
B|---------------------------------------|
G|----------6-7--------4---------7-9-----|
D|-4--------6-7--------4---------7-9-----|
A|-4--------4-5--------2---------5-7-----|
E|-2-------------------------------------|

e|----------------------------|
B|----------------------------|
G|-------------------6--------|
D|-------------------6--------|
A|-4--6---7-6-4-6-2--4--------|
E|-2--4---5-4-2-4-0-----------|

Chorus III:
e|----------------------------------------------------------|
B|----------------------------------------------------------|
G|----------------------------------------------------------|
D|-----------------------------7--7-7-7--7-7-7--7-7-7--7-7--|
A|-4--4-4-4--4-4-4--4-4-4--4-4-5--5-5-5--5-5-5--5-5-5--5-5--|
E|-2--2-2-2--2-2-2--2-2-2--2-2------------------------------|
PM|-------------------------------------------------------|

e|----------------------------------------------------------|
B|----------------------------------------------------------|
G|----------------------------------------------------------|
D|-4--4-4-4--4-4-4--4-4-4--4-4------------------------------|
A|-2--2-2-2--2-2-2--2-2-2--2-2-2--2-2-2--2-2-2--2-2-2--2-2--|
E|-----------------------------0--0-0-0--0-0-0--0-0-0--0-0--|Repeat!
PM|-------------------------------------------------------|

e|-----------------------------------|
B|-----------------------------------|
G|-------------------6-------6-6-6\--|
D|-------------------6-------6-6-6\--|
A|-4--6---7-6-4-6-2--4-------4-4-4\--|
E|-2--4---5-4-2-4-0------------------|

e|----------------------------------------------------------|
B|----------------------------------------------------------|
G|----------------------------------------------------------|
D|-----------------------------7--7-7-7--7-7-7--7-7-7--7-7--|
A|-4--4-4-4--4-4-4--4-4-4--4-4-5--5-5-5--5-5-5--5-5-5--5-5--|
E|-2--2-2-2--2-2-2--2-2-2--2-2------------------------------|
PM|-------------------------------------------------------|

e|----------------------------------------------------------|
B|----------------------------------------------------------|
G|----------------------------------------------------------|
D|-4--4-4-4--4-4-4--4-4-4--4-4------------------------------|
A|-2--2-2-2--2-2-2--2-2-2--2-2-2--2-2-2--2-2-2--2-2-2--2-2--|
E|-----------------------------0--0-0-0--0-0-0--0-0-0--0-0--|Repeat!
PM|-------------------------------------------------------|

e|----------------------------|
B|----------------------------|
G|-------------------6--------|
D|-------------------6--------|
A|-4--6---7-6-4-6-2--4--------|
E|-2--4---5-4-2-4-0-----------|
Fade out!

Enjoy!

************************************

| \ Slide down
| p Pull-off
| h Hammer-on
| ~ Vibrato
| (n) Ghost note

************************************
Song info
The Final Countdown
Europe
2001
  • Electronic
  • Rock
  • Arena Rock
  • House
Alternative tracks
Similar songs
Moves Like Jagger - Maroon 5
Yesterdays - Guns N' Roses
Bitch - The Rolling Stones

Hi! Hope you enjoy backing track experience.
If you want to help us in the development of the project, feel free to donate!