Feel Good Inc - Gorillaz
00:00 / 00:00
Tabs and lyrics
Tunning: Standard (E A D G B e)
Feel good inc. - Gorillaz
Tabbed by:Espen Rian Skog

Tuning:CADGBE (Drop-C)

Yes I know Drop-C should be with the 5 remaining strings tuned one step down, that
is why I've enclosed a (oneshouldthink) foolproof instruction.
So once again, this is the tuning this song is transcribed for: (CADGBE)

Bassguitar plays this riff throughout the song

Transcribed for guitar

e|---------------------------------------------------------------------------|
B|---------------------------------------------------------------------------|
G|---------------------------------------------------------------------------|
D|---------------------------------------------------------------------------|
A|---------2-1---------------------------------------------------------------|
C|-3-3-5-6-----8-8-11-10-6-3----/15------------------------------------------|

The last slide occours iregularly, with various dist/muting, listen for it.
(If you listen very closely you can hear the bass sliding just a bit back again
before start
ing the riff again.)

e|-11----11------------------------------------------------------------------|
B|----11----11---14---14----12----12-----------------------------------------|
G|------------------13---13----13-----8-/10\8--/-----------------------------|
D|---------------------------------------------------------------------------|
A|---------------------------------------------------------------------------|
C|---------------------------------------------------------------------------|

Bass plays this before chorus.
Play it palm-muted.

e|---------------------------------------------------------------------------|
B|---------------------------------------------------------------------------|
G|---------------------------------------------------------------------------|
D|---------------------------------------------------------------------------|
A|---------------------------------------------------------------------------|
C|--15-13-10-6-3-X-X---------------------------------------------------------|


D#m A#m
Windmill, Windmill for the land.
G#m A#m
Learn forever hand in hand
D#m A#m
Take it all in on your stride
G#m A#m
It is sticking, falling down
D#m A#m
Love forever love is free
G#m A#m
Let's turn forever you and me
D#m A#m
windmill, windmill for the land
G#m
Is everybody in?


play this riff three times before next verse

e|---------------------------------------------------------------------------|
B|---------------------------------------------------------------------------|
G|--6-6-6-6-6-6--------------------------------------------------------------|x3
D|--6-6-6-8-6-8--------------------------------------------------------------|
A|--4-4-4-4-4-4--------------------------------------------------------------|
C|---------------------------------------------------------------------------|

D#m G#m A#m or A#m
e|--6---4---6------1-----------------------------------------------------------|
B|--7---4---6------2-----------------------------------------------------------|
G|--8---4---6------3-----------------------------------------------------------|
D|--8---6---8------3-----------------------------------------------------------|
A|--6---6---8------1-----------------------------------------------------------|
C|-----------------------------------------------------------------------------|

Two notes are repeated throughout the chorus,if you feel like adding them, you can play
chorus chords like this:

D#m A#m G#m
e|---6--6--4--6--4--6---------x-x-x-6-x-6------4-4-4-6-4-6------------------|
B|---4--4--4--4--4--4---------9-9-9-6-9-6------4-4-4-4-4-4------------------|
G|---3--3--3--3--3--3---------6-6-6-6-6-6------4-4-4-4-4-4------------------|
D|--(x)(x)(x)(x)(x)(x)--------8-8-8-8-8-8------6-6-6-6-6-6------------------|
A|--(6)(6)(6)(6)(6)(6)--------8-8-8-8-8-8------6-6-6-6-6-6------------------|
C|--------------------------------------------------------------------------|


***********************************
| / slide up
| \ slide down
| h hammer-on
| p pull-off
| ~ vibrato
| + harmonic
| x Mute note
|( ) Ghost-note
***********************************
Tunning: Standard (E A D G B e)
_____________________________________________________________________

[Legend]

| / slide up
| \ slide down
| x Un-played/Ghost note
| p Pull off
| Between these are Notes from me.

| |
|O|
| | Repeat Sign... Pay attention to these!!
| |
|O|
| |
_____________________________________________________________________

Song Structure:

-Intro
-Verse [Stoner]
-Chorus/Bridge 1
-Verse [Rapping]
-Bridge 2/Chorus
-Verse [Rapping]
-A lot of laughing...
_____________________________________________________________________

Intro/Verse:
[Gutiar 1 Riff]

8x
E|-11----11--------9-9-7-6-7------------| |
B|---11----11----------------7\4/6\4----|O|
G|--------------------------------------| |
d|--------------------------------------| |
A|--------------------------------------|O|
D|--------------------------------------| |

[Guitar 2 Riff]
ONLY PLAY THIS PART IN THE FIRST VERSE!!!

4x
E|--14-16-14-13-----14-16-14-13-----19--| |
B|--------------------------------------|O|
G|--------------------------------------| |
D|--------------------------------------| |
A|--------------------------------------|O|
D|--------------------------------------| |

Chorus:
[Guitar 1 Chords]
The strumming technique here is very "Funk/Jazz" style... be careful. There's a lot
of strong up-strums. My advice would be to try not to playthe lower ends of the chords.
As you can see, the roots on the A#m and G#m aren't even played anyway.

4x D#m A#m G#m A#m
E|---7-7--7--7--7---7-7--7--7--7---5-5--5--5--5---7-7--7--7--7----| |
B|---8-8--8--8--8---7-7--7--7--7---5-5--5--5--5---7-7--7--7--7----|O|
G|---9-9--9--9--9---7-7--7--7--7---5-5--5--5--5---7-7--7--7--7----| |
d|---9-9--9--9--9---9-9--9--9--9---7-7--7--7--7---9-9--9--9--9----| |
A|---7-7--7--7--7---9-9--9--9--9---7-7--7--7--7---9-9--9--9--9----|O|
D|------------------X-X--X--X--X---X-X--X--X--X---X-X--X--X--X----| |

[Guitar 2 Riff]
[Really easy...]

3x
E|-6-6-4-6-4-6-4-6-4-|6-4-6-4-6-4-6-4p2--| |
B|-------------------|-------------------|O|
G|-------------------|-------------------| |
d|-------------------|-------------------| |
A|-------------------|-------------------|O|
D|-------------------|-------------------| |

Bridge 1:

[Guitar 1 Chords]

2x A#m
E|--7-7--7--7--7-|
B|--7-7--7--7--7-|
G|--7-7--7--7--7-|
D|--9-9--9--9--9-|
A|--9-9--9--9--9-|
D|--X-X--X--X--X-|

[Guitar 2 Riff]

E|-6-6-4-6-4-6-4-6-4-|6-4-6-4-6-4-6-4-|-6-4-6-4-6-4| |
B|-------------------|----------------|------------|O|
G|-------------------|----------------|------------| |
d|-------------------|----------------|------------| |
A|-------------------|----------------|------------|O|
D|-------------------|----------------|------------| |

[Verse Plays]

[Bridge 2 Plays]
Bridge 2 has nothing new. It plays for three phrases with the Guitar Chorus Riff
playing over it. The chords for the chorus play in the second and third phrases.

[Chorus Plays]

[Verse Plays]
Remember that there is no Guitar 2 riff in this verse

Have fun and check out my site. Feel free to email me and tell me what you think of this tab...

=============================================================================
Tunning: Standard (E A D G B e)
Tabbed by butcherworm
e-mail: butcherworm@hotmail.com

tuning: EADGBe (standard)

[Verse]

(transcribed for guitar)
e|------------------------------|
B|------------------------------|
G|------------------------------|
D|------------------------------|
A|------------------------------|
E|-0-0-2-3-8--7~--5-5-8-7-3--0--|


Guitar plays:
e|-11----11------------------------------------------|
B|----11----11---14---14----12----12-----------------|
G|------------------13---13----13----8--10--8--------|
D|---------------------------------------------------|
A|---------------------------------------------------|
E|---------------------------------------------------|


[Chorus]

e|-----------------------------------------------------------------------|
B|-----------------------------------------------------------------------|
G|-----------------------------------------------------------------------|
D|-------------------------0---------------------------------------------|
A|-----------------0---2--------2--------0----------------0--------------|
E|---0---2----3-------------------------------3---0---3-------3---2------|
Windmill, Windmill for the land. Learn for- e -ver hand in hand.

D#m A#m
Windmill, Windmill for the land.
G#m A#m
Learn forever hand in hand
D#m A#m
Take it all in on your stride
G#m A#m
It is sticking, falling down
D#m A#m
Love forever love is free
G#m A#m
Let's turn forever you and me
D#m A#m
Windmill, Windmill for the land
G#m
Is everybody in?


D#m : x68876
A#m : 688666
G#m : 466444


please correct it if its wrong.

for questions mail to butcherworm@hotmail.com
www.butcherworm.de.vu


************************************

| ~ Vibrato

************************************
Tunning: Standard (E A D G B e)
FEEL GOOD INC.
As recorded by Gorillaz
(From the 2005 Album DEMON DAYS)

Em
x 7 9 9 8 x
Bm
7 9 9 7 x x
Am
5 7 7 5 x x

Gtr I (Eb Ab Db Gb Bb Eb)
Gtr II (Eb Ab Db Gb Bb Eb)


[Intro]

[Maniacal Laugh Verse]

Q=137
4/4

Guitar 1
e|---------|--------12-||-----12-(12)------|-(12)---10----10----8-|
B|---------|-----------||o-12--------------|-----------10----10---|
G|---------|-----------||------------------|----------------------|
D|---------|-----------||------------------|----------------------|
A|---------|-----------||o-----------------|----------------------|
E|---------|-----------||------------------|----------------------|


[Bridge]

8x
e|----8--------------|---------------12--||-----|
B|-10----------------|------------------o||-----|
G|------9--(9)---(9)s|=11----(11)s=9-----||-----|
D|-------------------|-------------------||-----|
A|-------------------|------------------o||-----|
E|-------------------|-------------------||-----|


[Chorus]

Em Bm
Guitar 2
e|---------------|------------------------|
B|-!8-8--8--8--8-|-(7)-(7)--(7)--(7)--(7)-|
G|-!9-9--9--9--9-|--7---7----7----7----7--|
D|-!9-9--9--9--9-|--9---9----9----9----9--|
A|-!7-7--7--7--7-|--9---9----9----9----9--|
E|---------------|--7---7----7----7----7--|
|
|Guitar 1
e|---------------|------------------------|
B|---------------|------------------------|
G|---------------|------------------------|
D|---------------|------------------------|
A|---------------|------------------------|
E|---------------|------------------------|


Am Bm
e|--------------|-----------------------|
B|--------------|-----------------------|
G|-5-5--5--5--5-|-7-7------7----7-----7-|
D|-7-7--7--7--7-|-9-9------9----9-----9-|
A|-7-7--7--7--7-|-9-9------9----9-----9-|
E|-5-5--5--5--5-|-7-7------7----7-----7-|
|
e|--------------|-----------------------|
B|--------------|-----12-(12)--12-------|
G|--------------|-----------------11----|
D|--------------|--------------------12-|
A|--------------|-----------------------|
E|--------------|-----------------------|


Em Bm
e|------------------|------------------------|
B|--8-8---8---8---8-|-(7)-(7)--(7)--(7)--(7)-|
G|--9-9---9---9---9-|--7---7----7----7----7--|
D|--9-9---9---9---9-|--9---9----9----9----9--|
A|--7-7---7---7---7-|--9---9----9----9----9--|
E|------------------|--7---7----7----7----7--|
|
e|------------------|------------------------|
B|-------12--10--12-|-----10---12---10---12--|
G|-11---------------|------------------------|
D|------------------|------------------------|
A|------------------|------------------------|
E|------------------|------------------------|


Am Bm
e|------------------|--------------------|
B|------------------|--------------------|
G|-5--5---5---5---5-|-7--7---7---7-----7-|
D|-7--7---7---7---7-|-9--9---9---9-----9-|
A|-7--7---7---7---7-|-9--9---9---9-----9-|
E|-5--5---5---5---5-|-7--7---7---7-----7-|
|
e|------------------|--------------------|
B|---10--12--10--12-|---10--12--10-------|
G|------------------|--------------12-11-|
D|------------------|--------------------|
A|------------------|--------------------|
E|------------------|--------------------|


Em Bm
e||----------------------|------------------------|
B||o---8---8---8---8---8-|-(7)-(7)--(7)--(7)--(7)-|
G||----9---9---9---9---9-|--7---7----7----7----7--|
D||----9---9---9---9---9-|--9---9----9----9----9--|
A||o---7---7---7---7---7-|--9---9----9----9----9--|
E||----------------------|--7---7----7----7----7--|
|
e||----------------------|------------------------|
B||o------12--12--10--12-|-----10---12---10---12--|
G||--(11)----------------|------------------------|
D||----------------------|------------------------|
A||o---------------------|------------------------|
E||----------------------|------------------------|


1.
Am Bm
e|------------------|----------------------||
B|------------------|---------------------o||
G|-5--5---5---5---5-|-7--7---7---7-----7---||
D|-7--7---7---7---7-|-9--9---9---9-----9---||
A|-7--7---7---7---7-|-9--9---9---9-----9--o||
E|-5--5---5---5---5-|-7--7---7---7-----7---||
|
e|------------------|----------------------||
B|---10--12--10--12-|---10--12--10--------o||
G|------------------|--------------12-11---||
D|------------------|----------------------||
A|------------------|---------------------o||
E|------------------|----------------------||

2.
e|------------------|------------------|-----------------|
B|------------------|------------------|-----------------|
G|-7--7---7---7---7-|-7--7---7---7---7-|-7--7---7--7---7-|
D|-9--9---9---9---9-|-9--9---9---9---9-|-9--9---9--9---9-|
A|-9--9---9---9---9-|-9--9---9---9---9-|-9--9---9--9---9-|
E|-7--7---7---7---7-|-7--7---7---7---7-|-7--7---7--7---7-|
|
e|------------------|------------------|--------------12-|
B|---10--12--10--12-|---10--12--10--12-|---10--12--------|
G|------------------|------------------|-----------------|
D|------------------|------------------|-----------------|
A|------------------|------------------|-----------------|
E|------------------|------------------|-----------------|


[Verse 2]

N.C.
Guitar 1
e||-----12-(12)------|-(12)---10----10----8-|
B||o-12--------------|-----------10----10---|
G||------------------|----------------------|
D||------------------|----------------------|
A||o-----------------|----------------------|
E||------------------|----------------------|


6x
e|----8--------------|---------------12---||
B|-10----------------|-------------------o||
G|------9--(9)---(9)s|=11----(11)s=9------||
D|-------------------|--------------------||
A|-------------------|-------------------o||
E|-------------------|--------------------||


[Bridge]

Guitar 1,2
e|-----|
B|-----|
G|-----|
D|-----|
A|-----|
E|-----|


[Chorus]

Em Bm
Guitar 2
e|------------------|------------------------|
B|--8-8---8---8---8-|-(7)-(7)--(7)--(7)--(7)-|
G|--9-9---9---9---9-|--7---7----7----7----7--|
D|--9-9---9---9---9-|--9---9----9----9----9--|
A|--7-7---7---7---7-|--9---9----9----9----9--|
E|------------------|--7---7----7----7----7--|
|
|Guitar 1
e|------------------|------------------------|
B|-------12--10--12-|-----10---12---10---12--|
G|-11---------------|------------------------|
D|------------------|------------------------|
A|------------------|------------------------|
E|------------------|------------------------|


Am Bm
e|------------------|--------------------|
B|------------------|--------------------|
G|-5--5---5---5---5-|-7--7---7---7-----7-|
D|-7--7---7---7---7-|-9--9---9---9-----9-|
A|-7--7---7---7---7-|-9--9---9---9-----9-|
E|-5--5---5---5---5-|-7--7---7---7-----7-|
|
e|------------------|--------------------|
B|---10--12--10--12-|---10--12--10-------|
G|------------------|--------------12-11-|
D|------------------|--------------------|
A|------------------|--------------------|
E|------------------|--------------------|


Em Bm
e||----------------------|------------------------|
B||o---8---8---8---8---8-|-(7)-(7)--(7)--(7)--(7)-|
G||----9---9---9---9---9-|--7---7----7----7----7--|
D||----9---9---9---9---9-|--9---9----9----9----9--|
A||o---7---7---7---7---7-|--9---9----9----9----9--|
E||----------------------|--7---7----7----7----7--|
|
e||----------------------|------------------------|
B||o------12--12--10--12-|-----10---12---10---12--|
G||--(11)----------------|------------------------|
D||----------------------|------------------------|
A||o---------------------|------------------------|
E||----------------------|------------------------|


1.,2.,3.,4.
Am Bm
5x
e|------------------|----------------------||
B|------------------|---------------------o||
G|-5--5---5---5---5-|-7--7---7---7-----7---||
D|-7--7---7---7---7-|-9--9---9---9-----9---||
A|-7--7---7---7---7-|-9--9---9---9-----9--o||
E|-5--5---5---5---5-|-7--7---7---7-----7---||
|
| 5x
e|------------------|----------------------||
B|---10--12--10--12-|---10--12--10--------o||
G|------------------|--------------12-11---||
D|------------------|----------------------||
A|------------------|---------------------o||
E|------------------|----------------------||


5.
e|------------------|------------------|-----------------|
B|------------------|------------------|-----------------|
G|-7--7---7---7---7-|-7--7---7---7---7-|-7--7---7--7---7-|
D|-9--9---9---9---9-|-9--9---9---9---9-|-9--9---9--9---9-|
A|-9--9---9---9---9-|-9--9---9---9---9-|-9--9---9--9---9-|
E|-7--7---7---7---7-|-7--7---7---7---7-|-7--7---7--7---7-|
|
e|------------------|------------------|--------------12-|
B|---10--12--10--12-|---10--12--10--12-|---10--12--------|
G|------------------|------------------|-----------------|
D|------------------|------------------|-----------------|
A|------------------|------------------|-----------------|
E|------------------|------------------|-----------------|


[Out Verse]

N.C.
Guitar 1
e||-----12-(12)------|-(12)---10----10----8-|
B||o-12--------------|-----------10----10---|
G||------------------|----------------------|
D||------------------|----------------------|
A||o-----------------|----------------------|
E||------------------|----------------------|


4x
e|----8--------------|---------------12--||-----*|
B|-10----------------|------------------o||-----*|
G|------9--(9)---(9)s|=11----(11)s=9-----||-----*|
D|-------------------|-------------------||-----*|
A|-------------------|------------------o||-----*|
E|-------------------|-------------------||-----*|



************************************

| (n) Ghost note
| s slide
| o reprise

************************************
Tunning: Standard (E A D G B e)
#----------------------------------PLEASE NOTE--------------------------------#
#This file is the author's own work and represents their interpretation of the#
#song. You may only use this file for private study, scholarship, or research.#
#-----------------------------------------------------------------------------#
#-- File created with Instab - http://www.pconline.com/~smcarey/instab.html --#
#-----------------------------------------------------------------------------#

Author/Artist: Gorillaz
Title: Feel Good Inc.

*Play in relatively same position as tab.

Tuning (Eb A D G B e), Down ~ 10%, (eb, D) Down ~ 20%
Live Standard Tuning, Down ~ 10%
Bedroom Tuning* (Eb A D G B E)
Key: (C + G#)


e |----|--------------------------------------------------------------------------------|
B |----|--------------------------------------------------------------------------------|
G |----|--------------------------------------------------------------------------------|
D |----|--------------------------------------------------------------------------------|
A |----|--------------------------------------------------------------------------------|
Eb|----|-0--0-2-3--8--7-----5--5-8--7---3-0-----0--0-2-3--8-7-----5--5-8-7---3-0--/12---|


[Intro Bass Arr. Guitar]

e |-------------------------------------------------------------------------|
B |-------------------------------------------------------------------------|
G |-------------------------------------------------------------------------|
D |-------------------------------------------------------------------------|
A |-------------------------------------------------------------------------|
Eb|-0--0-2-3--8-7-----5--5-8-7---3-0------0--0-2-3--8-7-----5--5-8-7---3-0--|

e |----|----------------------------------------|
B |----|----------------------------------------|
G |----|----------------------------------------|
D |----|----------------------------------------|
A |----|----------------------------------------|
Eb|----|-0--0-2-3--8-7-----5--5-8-7---3-0--/12--|


[Verse Arr. Guitar]

e |----|-11----11--------9----9----7---7-----------------|
B |----|----11-------------11---11---7-------------------|
G |----|-------------------------------------------------|
D |----|-------------------------------------------------|
A |----|----------21-----------------------18--18/20-\18-|
Eb|----|-------------------------------------------------|


[Verse/Intro]

e |----|-----------------------|
B |----|-----------------------|
G |----|-----------------------|
D |----|-----------------------|
A |----|-----------------------|
Eb|----|-14-12-7--5-0-0--0--0--|


[Pre-Chorus Arr. Guitar]

e |----|----------------|--|-----|
B |----|-4---6---4---6--|--|--6--|
G |----|-3---6---4---6--|--|--6--|
D |----|-1---6---6---6--|--|--6--|
A |----|-----4---6---4--|--|--4--|
Eb|----|----------------|--|-----|


[Chorus/Bridge]

?

************************************

| / slide up
| \ slide down
| m mute

************************************
Tunning: Standard (E A D G B e)
NOTE: ALTERNATE TUNING:C#-G#-C#-F#-A#-D#


[VERSES]

D#-----------------------------------|
A#-----------------------------------|
F#-----------------------------------|
C#-----------------------------------|
G#---------2-1-----------------------|
C#-1-1-3-4------6-6-9-8-4-1- 1^13----|


VERSE Notes:

**ADD A LITTLE PERCUSSION FROM THE BODY OF YOUR GUITAR IN BETWEEN PAUSES or
YOU CAN PALM MUTE BTW PAUSES

**FOR THE VERSE: The way I play the last two notes:
SLIDE FROM 1 to 13**


[CHORUS]

D# A#m G#m Bmb
D#--6--------6----------4----------1------|
A#--7--------6----------4----------2------|
F#--8--------6----------4----------3------|
C#--9--------6----------4----------3------|
G#--6--------8----------6----------1------|
C#--x--------8----------6----------x------|


CHORUS Notes:

**THESE CHORDS PERTAINED TO STANDARD TUNING (THE GUITAR IS TUNED DOWN)
2 RHYTHMS I PLAY: D,D,U,U,D,U OR D,U,(PALM MUTE),D,U,D,(PALM MUTE)
Tunning: Standard (E A D G B e)
[Intro + Verse]

eb|-----------------|----------------|-----------------|----------------|
Bb|-----------------|----------------|-----------------|----------------|
Gb|-----------------|----------------|-----------------|----------------|
Db|-----------------|----------------|-----------------|----------------|
Ab|---------------3-|--2-------------|-0-----0-3-2-----|----------------|
Eb|-0-----0-2-3-----|----------------|---------------3-|--0-------------|
This goes on until the drumming stops and the chorus begins


[Chorus]

Em Bm
Windmill windmill for the land
Am Bm
Turn forever hand in hand
Em Bm
Take it all there on your stride
Am Bm
It is tinkin, falling down
Em Bm
Love forever love is free
Am Bm
Let's turn forever you and me
Em Bm
Windmill windmill for the land
Am Bm
Is everybody in


[Verse]

eb|-----------------|----------------|-----------------|----------------|
Bb|-----------------|----------------|-----------------|----------------|
Gb|-----------------|----------------|-----------------|----------------|
Db|-----------------|----------------|-----------------|----------------|
Ab|---------------3-|--2-------------|-0-----0-3-2-----|----------------|
Eb|-0-----0-2-3-----|----------------|---------------3-|--0-------------|
This goes on until the chorus starts again


[Chorus]

Em Bm
Windmill windmill for the land
Am Bm
Turn forever hand in hand
Em Bm
Take it all there on your stride
Am Bm
It is tinking falling down
Em Bm
Love forever love is free
Am Bm
Let's turn forever you and me
Em Bm
Windmill windmill for the land
Am Bm
Is everybody in


[Verse]

eb|-----------------|----------------|-----------------|----------------|
Bb|-----------------|----------------|-----------------|----------------|
Gb|-----------------|----------------|-----------------|----------------|
Db|-----------------|----------------|-----------------|----------------|
Ab|---------------3-|--2-------------|-0-----0-3-2-----|----------------|
Eb|-0-----0-2-3-----|----------------|---------------3-|--0-------------|
This goes on until the end of the song
Song info
Feel Good Inc
Gorillaz
2001
  • Electronic
  • Hip Hop
  • Pop
  • Breaks
  • Downtempo
  • Pop Rap
Similar songs
Chains - Tina Arena
Sweet Harmony - Beloved
Natural One - The Folk Implosion
California Gurls - Katy Perry

Hi! Hope you enjoy backing track experience.
If you want to help us in the development of the project, feel free to donate!