Every Day Is Exactly The Same - Nine Inch Nails
00:00 / 00:00
Tabs and lyrics
Tunning: Standard (E A D G B e)

Song: Every Day is Exactly the Same
Album: With Teeth
Track #: 06
Artist: Nine Inch Nails

Transcribed for use in standard tuning.

Intro (Piano)
e--------------------------------------------------------|
B--8-7---5-3---8-7---10-8--------8-7---5-3---8-7---13-12-|
G--------------------------------------------------------|
D--------------------------------------------------------|
A--------------------------------------------------------|
E--------------------------------------------------------|

Verses:(Chords in order)
e-------------------------------|
B-------------------------------|
G-------------------------------|
D-2------2------2------5---3----|
A-2--3---2--3---2--3---5---3----|
E-0--3---0--3---0--3---3---1---|



Chorus:
Guitar I
e----------------------|
B----------------------|
G-------2-----5--------|
D-2-----2-----5-----5--| X4
A-2-----0-----3-----5--|
E-0-----------------3--|

Guitar II (hard to hear)
e----------------------|
B----------------------|
G--------2-------0-----|
D-----0--2-----2----5--| X4
A---2----0---3------5--|
E-0-----------------3--|

Guitar III (repeat)
e-------------|
B----5--------|
G----7b9------|
D-------------|
A-------------|
E-------------|

Bridge: Piano Only

Song info
Every Day Is Exactly The Same
Nine Inch Nails
2001
  • Electronic
  • Rock
  • Alternative Rock
  • Downtempo
  • Electro
  • House
  • Synth-pop
Alternative tracks
Similar songs
Zero - The Smashing Pumpkins
Minerva - Deftones
Meant To Live - Switchfoot

Hi! Hope you enjoy backing track experience.
If you want to help us in the development of the project, feel free to donate!