Hitchin A Ride - Green Day
00:00 / 00:00
Tabs and lyrics
Tunning: Standard (E A D G B e)
Greenday
"Hitchin' A Ride"
Nimrod
standard tuning

b = bend
pm=palm mute

Main Riff:
e---------------------------
B---------------------------
G---------------------------
D--9-9--7-7--6-6--5--5-5-5--
A--9-9--7-7--6-6--5--5-5-5--
E--7-7--5-5--4-4--3--3-3-3--
pm - - - - - - - - - -

After he says "1,2,1,2,3,4"
do the same as below but without pm.

"travel times, you know I cannot lie..."
e----------------------------------------------
B----------------------------------------------
G----------------------------------------------
D--2-2--2--4-4--4--9-9-7-7-6-6-5-5--2-2--2--4--
A--2-2--2--4-4--4--9-9-7-7-6-6-5-5--2-2--2--4--
E--0-0--0--2-2--2--7-7-5-5-4-4-3-3--0-0--0--2--

After that repeat the main riff palm muted

Then after a little moment of silence play the bridge(I think
this is the bridge):
e--------------------------------------------
B--------------------------------------------
G--------------------------------------------
D--9999999999999999999-12121212121212121212--
A--9999999999999999999-12121212121212121212--
E--7777777777777777777-10101010101010101010--

e-------------------------------------------------------------------
B-------------------------------------------------------------------
G----------------------12121212121212121212-1111111111111111111111--
D--9999999999999999999-12121212121212121212-1111111111111111111111--
A--9999999999999999999-10101010101010101010-9-9-9-9-9-9-9-9-9-9-9---
E--7777777777777777777----------------------------------------------

e-----------------------------------------------
B-----------------------------------------------
G--------------------------------------------9b-
D--9999999999999999999-12121212121212121212--9b-
A--9999999999999999999-12121212121212121212--7b-
E--7777777777777777777-10101010101010101010-----

e-----------------------------------------------------------------------------------------
B-----------------------------------------------------------------------------------------
G---------9-------------9-------------9--------------------------9-------------9------9b--
D--9--12--9--12--9--12--9--12--9--12--9--12--9--12--9--7--9--12--9--12--9--12--9--12--9b--
A--9--12--7--12--9--12--7--12--9--12--7--12--9--12--9--7--9--12--7--12--9--12--7--12--7b--
E--7--10-----10--7--10-----10--7--10-----10--7--10--7--5--7--10-----10--7--10-----10------

Meanwhile a back guitar is palying this:
e------------------------
B------------------------
G------7-7-12-12-11-11---
D--9-9-7-7-12-12-11-11---
A--9-9-5-5-10-10-9--9----
E--7-7-------------------
all over the bridge

repeat the "travel times" part one more time and then again this:
e------------------------
B------------------------
G------7-7-12-12-11-11---
D--9-9-7-7-12-12-11-11---x7
A--9-9-5-5-10-10-9--9----
E--7-7-------------------

after 7 times that...
e-----------------
B-----------------
G-----------------
D--9-9--7-7--6-6--
A--9-9--7-7--6-6--
E--7-7--5-5--4-4--
Tunning: Standard (E A D G B e)
-------------------------------------------------------------------------------
HITCHIN A RIDE - Green Day
-------------------------------------------------------------------------------

Tabbed by: Jacob Fry
Email: jacob_1313@hotmail.com

Tuning: normal
x Mute note


ok, this is my first tab but ive listened to the song a lot and i know this is right.
all of the other tabs ive seen for this song were slightly wrong with the solo
and outro and ive fixed that. this doesnt give the exact timing but its basically
like its written and in the solo just strum like crazy in time with the song.


starts off with a violin intro.....

Verse
e|---------------------------------------------------------------------|
B|---------------------------------------------------------------------|
G|---------------------------------------------------------------------|
D|-99-X-33-X-66-X-5555-------------------------------------------------|
A|-99-X-33-X-66-X-5555-------------------------------------------------|
E|-77-X-55-X-44-X-3333-------------------------------------------------|

Chorus:
e|---------------------------------------------------------------------|
B|---------------------------------------------------------------------|
G|---------------------------------------------------------------------|
D|-2222222--4444444-99-X-77-X-66-X-5555--2222222-4444------------------|
A|-2222222--4444444-99-X-77-X-66-X-5555--2222222-4444------------------|
E|-0000000--2222222-77-X-55-X-44-X-3333--0000000-2222------------------|

Solo:
e|-----------------------------------------------------------------------------|
B|-----------------------------------------------------------------------------|
G|-4444444--7777777--4444444-------------------4444444--7777777--9999910101010-|
D|-4444444--7777777--4444444--5555555-4444444--4444444--7777777--9999910101010-|
A|-2222222--5555555--2222222--5555555-4444444--2222222--5555555--777778-8-8-8--|
E|----------------------------3333333-2222222----------------------------------|

e|---------------------------------------------------------------------------|
B|---------------------------------------------------------------------------|
G|-9-7---7-9-7---7-9-7-------7-------7-9-7---7-9-7-999910101010--------------|
D|-9-7-9-7-9-7-9-7-9-7-9-7-9-7-9-7-9-7-9-7-9-7-9-7-999910101010--------------|
A|-7-5-9-5-7-5-9-5-7-5-9-7-9-5-9-7-9-5-7-5-9-5-7-5-77778-8-8-8---------------|
E|-----7-------7-------7-5-7---7-5-7-------7---------------------------------|

Outro: (this is also the rythm under the solo)
e|---------------------------------------------------------------------------|
B|---------------------------------------7-----------------------------------|
G|----77---------------------------------8-----------------------------------|
D|-99-77-55-44---------------------------9-----------------------------------|
A|-99-55-55-44---------------------------9-----------------------------------|
E|-77----33-22---------------------------7-----------------------------------|

i think the solo starts over near the end of the song but it doesnt go all the
way through, its very quiet as well.
===============================================================================
Tunning: Standard (E A D G B e)
Standard tuning


[Intro]

(violin arranged for guitar) tr~~~~
e|-------------------------------------------------------|
B|-------------------------------------------------------|
G|------------------------8------------------------------|
D|------------8h9----11-------11----9----8(9)------------|
A|----9h10--------------------------------------10-------|
E|-------------------------------------------------------|


[Intro]

(guitar)
e|------------------------------------------------------------------------|
B|------------------------------------------------------------------------|
G|------------------------------------------------------------------------|
D|------------------------------------------------------------------------|
A|-99-77-66-555/-99-77-66-555/--------------------------------------------|
E|-77-55-44-333/-77-55-44-333/--------------------------------------------|
.. .. .. ... .. .. .. ...


[Verse 1/2]

e|--------------------------------------------------------------------------|
B|--------------------------------------------------------------------------|
G|--------------------------------------------------------------------------|
D|--------------------------------------------------------------------------|
A|-99-77-66-555/--99-77-66-555/-99-77-66-555/-99-77-66-555/-99-77-66-555/---|
E|-77-55-44-333/--77-55-44-333/-77-55-44-333/-77-55-44-333/-77-55-44-333/---|
.. .. .. ... .. .. .. ... .. .. .. ... .. .. .. ... .. .. .. ...

e|--------------------------------------------------------|
B|--------------------------------------------------------|
G|--------------------------------------------------------|
D|--------------------------------------------------------|
A|-99-77-66-555/-99-77-66-555/-99-77----------------------|
E|-77-55-44-333/-77-55-44-333/-77-55----------------------|
.. .. .. ... .. .. .. ... .. ..


[Pre-verse]

e|--------------------------------------------------------------------------|
B|--------------------------------------------------------------------------|
G|--------------------------------------------------------------------------|
D|--------------------------------------------------------------------------|
A|-666666-777777-99-77-66-555/-99-77-66-555/-99-77-66-555/-99-77-66---------|
E|-444444-555555-77-55-44-333/-77-55-44-333/-77-55-44-333/-77-55-44---------|


[Verse 2]


[Pre-chorus]

e|------------------------------------------------------------------------------|
B|------------------------------------------------------------------------------|
G|------------------------------------------------------------------------------|
D|------------------------------------------------------------------------------|
A|-666666-777777-99-77-66-555/-99-77-66-555/-99-77-66-555/-999-7777-6666-5555---|
E|-444444-555555-77-55-44-333/-77-55-44-333/-77-55-44-333/-777-5555-4444-3333---|


[Chorus]

e|------------------------------------------------------------------------------|
B|------------------------------------------------------------------------------|
G|------------------------------------------------------------------------------|
D|------------------------------------------------------------------------------|
A|-222222-444444-999-777-666-5555-222222-444------------------------------------|
E|-000000-222222-777-555-444-3333-000000-222------------------------------------|


[Verse 3]

e|-------------------------------------------------------------------------|
B|-------------------------------------------------------------------------|
G|-------------------------------------------------------------------------|
D|-------------------------------------------------------------------------|
A|-99-77-66-555/-99-77-66-555/-99-77-66-555/-99-77-66-555/-99-77-66-555----|
E|-77-55-44-333/-77-55-44-333/-77-55-44-333/-77-55-44-333/-77-55-44-333----|


[Solo]

e|------------------------------------------------------------------------------|
B|-12-12-12-12-12-12-12-12-12-12-12-12/-15-15-15-15-15-15-15-15-15-15-15-15\----|
G|-x--x--x--x--x--x--x--x--x--x--x--x----x--x--x--x--x--x--x--x--x--x--x--x-----|
D|-9--9--9--9--9--9--9--9--9--9--9--9-/-12-12-12-12-12-12-12-12-12-12-12-12\----|
A|------------------------------------------------------------------------------|
E|------------------------------------------------------------------------------|

e|------------------------------------------------------------------------------|
B|-12-12-12-12-12-12-12-12-12-12-12-12-8-8-8-8-8-8-7-7-7-7-7-7------------------|
G|-x--x--x--x--x--x--x--x--x--x--x--x--x-x-x-x-x-x-x-x-x-x-x-x------------------|
D|-9--9--9--9--9--9--9--9--9--9--9--9--5-5-5-5-5-5-4-4-4-4-4-4------------------|
A|------------------------------------------------------------------------------|
E|------------------------------------------------------------------------------|

e|------------------------------------------------------------------------------|
B|-12-12-12-12-12-12-12-12-12-12-12-12/-15-15-15-15-15-15-15-15-15-15-15-15-----|
G|-x--x--x--x--x--x--x--x--x--x--x--x----x--x--x--x--x--x--x--x--x--x--x--x-----|
D|-9--9--9--9--9--9--9--9--9--9--9--9-/-12-12-12-12-12-12-12-12-12-12-12-12-----|
A|------------------------------------------------------------------------------|
E|------------------------------------------------------------------------------|

~~hold~bend~~~~~~
e|--------------------------------------------------------------------------------|
B|-17-17-17-17-17-17-17-17-17-17-17-17-17-17-17-17-17-17--------------------------|
G|--x---x---x---x---x---x---x---x---x---x---x---x---x--x--x--x--x--x--------------|
D|-14-14-14-14-14-14-14-14-14-14-14-14-14-14-14-14-14-14--------------------------|
A|--------------------------------------------------------------------------------|
E|--------------------------------------------------------------------------------|

e|------------------------------------------------------------------------------|
B|-17-15-12-15-17-15-12-15-17-15-12-10-12-15-12-10-12-15-17-15-12-15-17-15------|
G|--x--x--x--x--x--x--x--x--x--x--x--x--x--x--x--x--x--x--x--x--x--x--x--x------|
D|-14-12--9-12-14-12--9-12-14-12--9--7--9-12--9--7--9-12-14-12--9-12-14-12------|
A|------------------------------------------------------------------------------|
E|------------------------------------------------------------------------------|

e|--------------------------------------------------------------------------------|
B|-17-17-17-17-17-17-17-17-17-17-17-17--------------------------------------------|
G|--x---x---x---x---x---x---x---x---x---x---x---x---------------------------------|
D|-14-14-14-14-14-14-14-14-14-14-14-14--------------------------------------------|
A|--------------------------------------------------------------------------------|
E|--------------------------------------------------------------------------------|

~~~~~~~~~~~~~~~hold~bend~~~~~~~~~~~~
e|--------------------------------------------------|
B|--------------------------------------------------|
G|-17-17-17-17-17-17-17-17-17-17-17-17--------------|
D|--x--x--x--x--x--x--x--x--x--x--x--x--------------|
A|-14-14-14-14-14-14-14-14-14-14-14-14--------------|
E|--------------------------------------------------|


[Chorus]


[Outro] x4

(also played by another guitar during solo)
e|------------------------------------------------------------------------|
B|------------------------------------------------------------------------|
G|------------------------------------------------------------------------|
D|-----777----------------------------------------------------------------|
A|-999-555-555-444--------------------------------------------------------|
E|-777-----333-222--------------------------------------------------------|

on fourth time the other guitar does this ~hold~bend~
e|--------------------------------------------------------------------------------|
B|-17-17-17-17-17-17-17-17-17-17-17-17-17-17-17-17--------------------------------|
G|--x---x---x---x---x---x---x---x---x---x---x---x---x--x--x--x--------------------|
D|-14-14-14-14-14-14-14-14-14-14-14-14-14-14-14-14--------------------------------|
A|--------------------------------------------------------------------------------|
E|--------------------------------------------------------------------------------|


[Ending]

e|-4--------|
B|-4--------|
G|-4--------|
D|-4--------|
A|-2--------|
E|-2--------|



************************************

| x Dead note
| (n) Ghost note
| h Hammer-on
| / Slide up
| \ Slide down
| . Palm mute
| tr Trill

************************************
Tunning: Standard (E A D G B e)
Hitchin' A Ride
Green Day
nimrod. (1997)
Lyrics: Billie Joe Armstrong
Music: Green Day
Tuning: Normal
Notes: The main riff appears throughout the song, just vary the
strumming pattern and intesity according to which part you're at.
The solo is octaves in the D and B strings, just strum as fast as
you can.

h = hammer-on
p = pull-off
b = bend
/ = slide up
\ = slide down
5 = power chord

Intro (violin arranged for guitar)
e|---------------------------------------------------------------|
B|--------------8------------------------------------------------|
G|------8h9-11----11--9-8h9p8------------------------------------|
D|-9h10-----------------------10---------------------------------|
A|-------------------------------x-x-----------------------------|
E|-------------------------------x-x-----------------------------|

Main riff
B5 A5 G#5 G5
e|---------------------------------------------------------------|
B|---------------------------------------------------------------|
G|---------------------------------------------------------------|
D|-9----7----6----5----------------------------------------------|
A|-9----7----6----5----------------------------------------------|
E|-7----5----4----3----------------------------------------------|

Chorus
E5 F#5 E5 F#5
e|---------------------------------------------------------------|
B|---------------------------------------------------------------|
G|-----------(main riff)-----------------------------------------|
D|-2----4-----------------2----4---------------------------------|
A|-2----4-----------------2----4---------------------------------|
E|-0----2-----------------0----2---------------------------------|

Bridge (played over end chords, strum really fast)
| x3 |
e|---------------------------------------------------------------|
B|-12--15---12--8--7---12--15---17-b---17--15--12--15---12--15---|
G|-x---x----x---x--x---x---x----x------x---x---x---x----x---x----|
D|-9---12---9---5--4---9---12---14-b---14--12--9---12---9---12---|
A|---------------------------------------------------------------|
E|---------------------------------------------------------------|
| x2 |
e|---------------------------------------------------------------|
B|-12--10--12--15--17--15---17b----------------------------------|
G|-x---x---x---x---x---x----x------------------------------------|
D|-9---7---9---12--14--12---14b----------------------------------|
A|---------------------------------------------------------------|
E|---------------------------------------------------------------|

End
B5 D5 G5 F#5 (x7) B5 D5 F#5 (over last F#5) B6
e|-----------------------------------------------------------4---|
B|--------------------------------------------17b------------4---|
G|------7-------------------------7-----------x--------------4---|
D|-9----7----5----4----------9----7----4------14b------------4---|
A|-9----5----5----4----------9----5----4---------------------2---|
E|-7---------3----2----------7---------2-------------------------|


Order

Intro (violin intro, main riff x2)
Verse 1 (main riff x4)
Verse 2 (main riff x4)
Main riff x4 (last G5 omitted)
Verse 3 (main riff x4)
Verse 4 (main riff x4)
Main riff x4
Chorus
Main riff x2
Verse 4 (main riff x4)
Bridge
Chorus
End


Lyrics

Hey mister, where you headed
Are you in a hurry? (Verse 1)
Need a lift to happy hour
Say "Oh no"

Do you brake for distilled spirits
Need a break as well (Verse 2)
The well the inebriates the guilt
1..2..1..2..3..4

Cold turkey's gettin stale
Tonight I'm eatin crow
Fermented salmonella (Verse 3)
Poison oak, no

There's a drought at the fountain of youth
Now I'm dehydrating (Verse 4)
My tongue is swelling up, I say
1..2..1..2..3..4

Troubled times
You know I cannot lie (Chorus)
I'm off the wagon and I'm hitchin a ride

(Verse 4)(replace "1..2..1..2..3..4" with scream)
(Bridge)
(Chorus)

(Don't know where to go)
Hitchin' a ride (End)
Tunning: Standard (E A D G B e)
Green Day Hitchin' A Ride
From the album Nimrod and International Superhits
Track numbers 2 and 14
Tabbed by Liam
Email: guitar_rocker_47@hotmail.com
Tuning: Standard

IMPORTANT the tab doesn't make any sense unless you pay close attention to the order
at the end of this tab. Okay!

In the Main Riff the first bar sounds the same as the 2nd bar even though it is a
different chord you play, this is the way Billie Joe plays it because it easier to
reach. And it sounds exactly the same. Give it a try if you're confused email me or
leave a comment

Violin Intro (transcribed For Guitar)
e|-----------------------------------------------------------|
B|------3/4--6b~~-----7--6—4--3b4----------------------------|
G|-4/5---------------------------5~~-------------------------|
D|-----------------------------------------------------------|
A|-----------------------------------------------------------|
E|-----------------------------------------------------------|

Main Riff
E|------------------------|------------------------|
B|------------------------|------------------------|
G|------------------------|-4-4--2-2---------------|
D|-9-9--7-7--6-6--5-5-5-5-|-4-4--2-2--6-6--5-5-5-5-|
A|-9-9--7-7--6-6--5-5-5-5-|-2-2--0-0--6-6--5-5-5-5-|
E|-7-7--5-5--4-4--3-3-3-3-|-----------4-4--3-3-3-3-|
PM ***********************************************

Pre Chorus (a second guitar plays this when Guitar 1 is finishes the Main Riff)
E|------------------------------|
B|------------------------------|
G|------------------------------|
D|-2-2-2-2--4-4-4-4-------------|
A|-2-2-2-2--4-4-4-4-------------|
E|-0-0-0-0--2-2-2-2-------------|

Chorus
E|------------------------|------------------------|------------------------|
B|------------------------|------------------------|------------------------|
G|------------------------|------------------------|------------------------|
D|-9-9--7-7--6-6--5-5-5-5-|-9-9--7-7--6-6--5-5-5-5-|-9-9--7-7--6-6--5-5-5-5-|
A|-9-9--7-7--6-6--5-5-5-5-|-9-9--7-7--6-6--5-5-5-5-|-9-9--7-7--6-6--5-5-5-5-|
E|-7-7--5-5--4-4--3-3-3-3-|-7-7--5-5--4-4--3-3-3-3-|-7-7--5-5--4-4--3-3-3-3-|

E|-----------------------------|
B|-----------------------------|
G|----------------(drum fill)--|
D|-9-9--7-7--6-6---------------|
A|-9-9--7-7--6-6---------------|
E|-7-7--5-5--4-4---------------|

Chorus 2
E|------------------------|------------------------|------------------------|
B|------------------------|------------------------|------------------------|
G|------------------------|------------------------|------------------------|
D|-9-9--7-7--6-6--5-5-5-5-|-9-9--7-7--6-6--5-5-5-5-|-9-9--7-7--6-6--5-5-5-5-|
A|-9-9--7-7--6-6--5-5-5-5-|-9-9--7-7--6-6--5-5-5-5-|-9-9--7-7--6-6--5-5-5-5-|
E|-7-7--5-5--4-4--3-3-3-3-|-7-7--5-5--4-4--3-3-3-3-|-7-7--5-5--4-4--3-3-3-3-|

E|------------------------------------|------------------|------------------------|
B|------------------------------------|------------------|------------------------|
G|------------------------------------|------------------|------------------------|
D|-9-9-9-9--7-7-7-7--6-6-6-6--5-5-5-5-|-2-2-2-2--4-4-4-4-|-9-9--7-7--6-6--5-5-5-5-|
A|-9-9-9-9--7-7-7-7--6-6-6-6--5-5-5-5-|-2-2-2-2--4-4-4-4-|-9-9--7-7--6-6--5-5-5-5-|
E|-7-7-7-7--5-5-5-5--4-4-4-4--3-3-3-3-|-0-0-0-0--2-2-2-2-|-7-7--5-5--4-4--3-3-3-3-|

E|------------------------------|
B|------------------------------|
G|------------------------------|
D|-2-2-2-2--4-4-4-4-------------|
A|-2-2-2-2--4-4-4-4-------------|
E|-0-0-0-0--2-2-2-2-------------|

Pre Solo
E|------------------------|------------------------|------------------------|
B|------------------------|------------------------|------------------------|
G|------------------------|-4-4--2-2---------------|------------------------|
D|-9-9--7-7--6-6--5-5-5-5-|-4-4--2-2--6-6--5-5-5-5-|-9-9--7-7--6-6--5-5-5-5-|
A|-9-9--7-7--6-6--5-5-5-5-|-2-2--0-0--6-6--5-5-5-5-|-9-9--7-7--6-6--5-5-5-5-|
E|-7-7--5-5--4-4--3-3-3-3-|-----------4-4--3-3-3-3-|-7-7--5-5--4-4--3-3-3-3-|

E|------------------------|------------------------|
B|------------------------|------------------------|
G|------------------------|-4-4--2-2---------------|
D|-9-9--7-7--6-6--5-5-5-5-|-4-4--2-2--6-6--5-5-5-5-|
A|-9-9--7-7--6-6--5-5-5-5-|-2-2--0-0--6-6--5-5-5-5-|
E|-7-7--5-5--4-4--3-3-3-3-|-----------4-4--3-3-3-3-|



Solo (there are two guitar tracks in the solo (Billie Plays Guitar 1)

Guitar 2
E|-------------------------|-------------------------|-------------------------|
B|-------------------------|-------------------------|-------------------------|
G|-------7-7---------------|-------7-7---------------|-------7-7---------------|
D|--9-9--7-7--5-5--4-4-4---|--9-9--7-7--5-5--4-4-4---|--9-9--7-7--5-5--4-4-4---|
A|--9-9--5-5--5-5--4-4-4---|--9-9--5-5--5-5--4-4-4---|--9-9--5-5--5-5--4-4-4---|
E|--7-7-------3-3--2-2-2---|--7-7-------3-3--2-2-2---|--7-7-------3-3--2-2-2---|

Guitar 1
E|-------------------------|-------------------------|-------------------------|
B|-12-12-12-12-12-12-12-12-|-15-15-15-15-15-15-15-15-|-12-12-12-12-12-12-12-12-|
G|--x--x--x--x--x--x--x--x-|--x--x--x--x--x--x--x--x-|--x--x--x--x--x--x--x--x-|
D|--9--9--9--9--9--9--9--9-|-12-12-12-12-12-12-12-12-|--9--9--9--9--9--9--9--9-|
A|-------------------------|-------------------------|-------------------------|
E|-------------------------|-------------------------|-------------------------|

Guitar 2
E|-------------------------|-------------------------|-------------------------|
B|-------------------------|-------------------------|-------------------------|
G|-------7-7---------------|-------7-7---------------|-------7-7---------------|
D|--9-9--7-7--5-5--4-4-4---|--9-9--7-7--5-5--4-4-4---|--9-9--7-7--5-5--4-4-4---|
A|--9-9--5-5--5-5--4-4-4---|--9-9--5-5--5-5--4-4-4---|--9-9--5-5--5-5--4-4-4---|
E|--7-7-------3-3--2-2-2---|--7-7-------3-3--2-2-2---|--7-7-------3-3--2-2-2---|

Guitar 1
E|-------------------------|-------------------------|-------------------------|
B|-17-17-17-17-15-15-15-15-|-12-12-12-12-12-12-12-12-|-15-15-15-15-15-15-15-15-|
G|--x--x--x--x--x--x--x--x-|--x--x--x--x--x--x--x--x-|--x--x--x--x--x--x--x--x-|
D|-14-14-14-14-12-12-12-12-|--9--9--9--9--9--9--9--9-|-12-12-12-12-12-12-12-12-|
A|-------------------------|-------------------------|-------------------------|
E|-------------------------|-------------------------|-------------------------|

Guitar 2
E|-------------------------|-------------------------|-------------------------|
B|-------------------------|-------------------------|-------------------------|
G|-------7-7---------------|-------7-7---------------|-------7-7---------------|
D|--9-9--7-7--5-5--4-4-4---|--9-9--7-7--5-5--4-4-4---|--9-9--7-7--5-5--4-4-4---|
A|--9-9--5-5--5-5--4-4-4---|--9-9--5-5--5-5--4-4-4---|--9-9--5-5--5-5--4-4-4---|
E|--7-7-------3-3--2-2-2---|--7-7-------3-3--2-2-2---|--7-7-------3-3--2-2-2---|

Guitar 1
E|-------------------------|-------------------------|--------------------------|
B|-17-17-17-17-17-17-17-17-|-17-17-17-17-17-17-17-17-|-17-15-12-15--17-15-12-15-|
G|--x--x--x--x--x--x--x--x-|--x--x--x--x--x--x--x--x-|--x--x--x--x---x--x--x--x-|
D|-14-14-14-14-14-14-14-14-|-14-14-14-14-14-14-14-14-|-14-12--9-12--14-12--9-12-|
A|-------------------------|-------------------------|--------------------------|
E|-------------------------|-------------------------|--------------------------|
Bend upwards!

Guitar 2
E|--------------------------|--------------------------|--------------------------|
B|--------------------------|--------------------------|--------------------------|
G|-------7-7----------------|-------7-7----------------|-------7-7----------------|
D|--9-9--7-7--5-5--4-4-4----|--9-9--7-7--5-5--4-4-4----|--9-9--7-7--5-5--4-4-4----|
A|--9-9--5-5--5-5--4-4-4----|--9-9--5-5--5-5--4-4-4----|--9-9--5-5--5-5--4-4-4----|
E|--7-7-------3-3--2-2-2----|--7-7-------3-3--2-2-2----|--7-7-------3-3--2-2-2----|

Guitar 1
E|--------------------------|--------------------------|
B|-17-15-12-15--17-15-12-10-|-12-15-17-15--12-15-17-15-|
G|--x--x--x--x---x--x--x--x-|--x--x--x--x---x--x--x--x-|
D|-14-12--9-12--14-12--9--7-|--9-12-14-12---9-12-14-12-|
A|--------------------------|--------------------------|
E|--------------------------|--------------------------|

Guitar 2
E|------------------------------------------------|
B|------------------------------------------------|
G|------------7----7------------------------------|
D|--9----9----7----7----5----5-----4----4----4----|
A|--9----9----5----5----5----5-----4----4----4----|
E|--7----7--------------3----3-----2----2----2----|

Guitar 1
E|-------------------------|-------------------------|
B|-17-17-17-17-17-17-17-17-|-17-17-17-17-17-17-17-17-|
G|--x--x--x--x--x--x--x--x-|--x--x--x--x--x--x--x--x-|
D|-14-14-14-14-14-14-14-14-|-14-14-14-14-14-14-14-14-|
A|-------------------------|-------------------------|
E|-------------------------|-------------------------|
Bend upwards!

Post Solo
E|------------------|-------------------------|------------------|
B|------------------|-------------------------|------------------|
G|------------------|-------------------------|------------------|
D|-2-2-2-2--4-4-4-4-|--9-9--7-7--6-6--5-5-5-5-|-2-2-2-2--4-4-4-4-|
A|-2-2-2-2--4-4-4-4-|--7-7--5-5--4-4--3-3-3-3-|-2-2-2-2--4-4-4-4-|
E|-0-0-0-0--2-2-2-2-|--7-7--5-5--4-4--3-3-3-3-|-0-0-0-0--2-2-2-2-|

Outro

E|----------------------|----------------------|----------------------|
B|----------------------|----------------------|----------------------|
G|------7-7-------------|------7-7-------------|------7-7-------------|
D|-9-9--7-7--5-5--4-4-4-|-9-9--7-7--5-5--4-4-4-|-9-9--7-7--5-5--4-4-4-|
A|-9-9--5-5--5-5--4-4-4-|-9-9--5-5--5-5--4-4-4-|-9-9--5-5--5-5--4-4-4-|
E|-7-7-------3-3--2-2-2-|-7-7-------3-3--2-2-2-|-7-7-------3-3--2-2-2-|

E|----------------------|----------------------|----------------------|
B|----------------------|----------------------|----------------------|
G|------7-7-------------|------7-7-------------|------7-7-------------|
D|-9-9--7-7--5-5--4-4-4-|-9-9--7-7--5-5--4-4-4-|-9-9--7-7--5-5--4-4-4-|
A|-9-9--5-5--5-5--4-4-4-|-9-9--5-5--5-5--4-4-4-|-9-9--5-5--5-5--4-4-4-|
E|-7-7-------3-3--2-2-2-|-7-7-------3-3--2-2-2-|-7-7-------3-3--2-2-2-|

E|----------------------|-------------------------|-------------------------|
B|----------------------|-17-17-17-17-17-17-17-17-|-17-17-17-17-17-17-17-17-|
G|------7-7-------------|--x--x--x--x--x--x--x--x-|--x--x--x--x--x--x--x--x-|
D|-9-9--7-7--5-5--4-4-4-|-14-14-14-14-14-14-14-14-|-14-14-14-14-14-14-14-14-|
A|-9-9--5-5--5-5--4-4-4-|-------------------------|-------------------------|
E|-7-7-------3-3--2-2-2-|-------------------------|-------------------------|
Bend upwards!

Order

Violin Intro
Main Riff x 5
Pre chorus
Chorus
Main Riff x 4
Pre Chorus
Chorus 2
Pre Solo
Solo
Post Solo
Outro

Did you like it? If you did please rate it or make some comments, cos writing that
solo was the hardest thing I ever did! Thanks bye!
Tunning: Standard (E A D G B e)
HITCHIN' A RIDE
As recorded by Green Day
(From the 1997 Album NIMROD)
Donkey Fly

As people who have seen some of my other tabs i like to use PTE to get it just right so
ive used it here. Enjoy

Words by Billie Joe

Music by Green Day

B D G F#
x 2 4 4 x x x 5 7 7 x x 3 5 5 x x x 2 4 4 x x x

A5 G#5
x 0 2 2 x x 4 6 6 x x x

Intro
freH.=HQ=203 Q=162 H=H Q=Q=162 Q=203
4/4
Gtr V
~~ ~~~~~~~~~~
|--------------|-----------|------------------|-------------||
|--------------|-----------|-8----------------|-------------||
|--------8h-9--|-11--------|---11-9-8tr9------|-------------||
|-9h-10--------|-----------|--------------10--|-(10)--------||
|--------------|-----------|------------------|-------------||
|--------------|-----------|------------------|-------------||


Verse
Fast Rock Q=162(8=s8)
B5 A5 G#5 G5
Gtr I
PM----------------------------|
9x
||------------------|------------------||
||o-----------------|-----------------o||
||------------------|------------------||
||------------------|------------------||
||o-9--9-x\-7--7-x\-|-6--6-x\-5-5-5/--o||
||--7--7-x\-5--5-x\-|-4--4-x\-3-3-3/---||


Pre-Chorus
B5 A5 G#5 G5 B5 A5
Gtrs I, II
PM---------------|
|---------------------|--------------------------||------------------|
|---------------------|--------------------------||o-----------------|
|---------------------|--------------------------||------------------|
|----(9)-x\----(7)-x\-|-6-6-6-6-6-6-5-5-5-5-5-5/-||--9--9-x\-7--7-x\-|
|-9---9--x\-7---7--x\-|-6-6-6-6-6-6-5-5-5-5-5-5/-||o-9--9-x\-7--7-x\-|
|-7---7--x\-5---5--x\-|-4-4-4-4-4-4-3-3-3-3-3-3/-||--7--7-x\-5--5-x\-|


G#5 G5 B5 A5 G#5
3x
|------------------||-----------------|-----------||
|-----------------o||-----------------|-----------||
|------------------||-----------------|-----------||
|-6--6-x\-5-5-5/---||-9--9-x\-7--7-x\-|-6--6------||
|-6--6-x\-5-5-5/--o||-9--9-x\-7--7-x\-|-6--6------||
|-4--4-x\-3-3-3/---||-7--7-x\-5--5-x\-|-4--4------||


Verse
B5 A5 G#5 G5
Gtr I
PM-------------------------------------------|
8x
||--------------------------|----------------------------||
||o-------------------------|---------------------------o||
||--------------------------|----------------------------||
||--(9)--(9)-x\-(7)--(7)-x\-|-(6)--(6)-x\-(5)-(5)-(5)/---||
||o--9----9--x\--7----7--x\-|--6----6--x\--5---5---5/---o||
||---7----7--x\--5----5--x\-|--4----4--x\--3---3---3/----||


Pre-Chorus
B5 A5 G#5 G5 B5 A5
Gtrs I, II
PM------------------|
|-------------------------|--------------------------||------------------|
|-------------------------|--------------------------||o-----------------|
|-------------------------|--------------------------||------------------|
|-(9)--(9)-x\-(7)--(7)-x\-|-6-6-6-6-6-6-5-5-5-5-5-5/-||--9--9-x\-7--7-x\-|
|--9----9--x\--7----7--x\-|-6-6-6-6-6-6-5-5-5-5-5-5/-||o-9--9-x\-7--7-x\-|
|--7----7--x\--5----5--x\-|-4-4-4-4-4-4-3-3-3-3-3-3/-||--7--7-x\-5--5-x\-|


Chorus
G#5 G5 B5 A5 G#5 G5
3x
|------------------||----------------|-----------------|
|-----------------o||----------------|-----------------|
|------------------||----------------|-----------------|
|-6--6-x\-5-5-5/---||-9--9-9-7-7-7-7-|-6-6-6-6-5-5-5-5-|
|-6--6-x\-5-5-5/--o||-9--9-9-7-7-7-7-|-6-6-6-6-5-5-5-5-|
|-4--4-x\-3-3-3/---||-7--7-7-5-5-5-5-|-4-4-4-4-3-3-3-3-|


E5 F#5 B5 A5
|-----------------|-----------------|---------------|
|-----------------|-----------------|---------------|
|-----------------|-----------------|-4--4-4-2--2-2-|
|-2--2-2-(2)-2-2--|-4--4-4-(4)-4-4--|-4--4-4-2--2-2-|
|-2--2-2-(2)-2-2--|-4--4-4-(4)-4-4--|-2--2-2-0--0-0-|
|-0--0-0-(0)-0-0--|-2--2-2-(2)-2-2--|---------------|


G#5 G5 E5 F#5
|----------------|--------------|-------------||
|----------------|--------------|-------------||
|----------------|--------------|-------------||
|-6--6-6-5-5-5-2-|-2--2-2-2--2--|-4--4-4-4----||
|-6--6-6-5-5-5-2-|-2--2-2-2--2--|-4--4-4-4----||
|-4--4-4-3-3-3-0-|-0--0-0-0--0--|-2--2-2-2----||


Verse
B5 A5 G#5 G5 B5 A5
Gtr I
PM---------------------------------------------------------|
3x
||------------------|------------------||-------------------------|
||o-----------------|-----------------o||-------------------------|
||------------------|------------------||-------------------------|
||------------------|------------------||-(9)--(9)-x\-(7)--(7)-x\-|
||o-9--9-x\-7--7-x\-|-6--6-x\-5-5-5/--o||--9----9--x\--7----7--x\-|
||--7--7-x\-5--5-x\-|-4--4-x\-3-3-3/---||--7----7--x\--5----5--x\-|


G#5 G5
PM------------------------
|---------------------------|
|---------------------------|
|---------------------------|
|-(6)--(6)-x\-(5)-(5)-(5)/--|
|--6----6--x\--5---5---5/---|
|--4----4--x\--3---3---3/---|


B5 A5 G#5 G5
-----------------------------------------------|
|-------------------------|--------------------------|
|-------------------------|--------------------------|
|-------------------------|--------------------------|
|-(9)--(9)-x\-(7)--(7)-x\-|-(6)--(6)-x\-(5)-(5)-(5)--|
|--9----9--x\--7----7--x\-|--6----6--x\--5---5---5---|
|--7----7--x\--5----5--x\-|--4----4--x\--3---3---3---|


H=H Q=203
Gtr V
TP TP TP
|-7s=======|=14s======19---||
|-0--------|-(0)------(0)--||
|----------|---------------||
|----------|---------------||
|----------|---------------||
|----------|---------------||


Guitar Solo
Fast Rock Q=162(8=s8)
B5 D5 G5 F#5
Gtr III
|-----------------------------------------|-------------------------------------------|
|-12-12-12-12-12---12-12-12-12-12-12---12S|=15-15-15-15-15---15-15-15---15-15-15---15S|
|-----------------------------------------|-------------------------------------------|
|--9--9--9--9--9----9--9--9--9--9--9----9S|=12-12-12-12-12---12-12-12---12-12-12---12S|
|-----------------------------------------|-------------------------------------------|
|-----------------------------------------|-------------------------------------------|
|
| Gtrs I, II
|-----------------------------------------|-------------------------------------------|
|-----------------------------------------|-------------------------------------------|
|--4--------4----4-----7--------7----7----|-------------------------------------------|
|--4--------4----4-----7--------7----7----|--5--------5----5-----4----4-----4----4----|
|--2--------2----2-----5--------5----5----|--5--------5----5-----4----4-----4----4----|
|-----------------------------------------|--3--------3----3-----2----2-----2----2----|


B5 D5
|------------------------------------------|
|-12-12-12-12-12---12-12-12-12-12-12---12--|
|------------------------------------------|
|--9--9--9--9--9----9--9--9--9--9--9----9--|
|------------------------------------------|
|------------------------------------------|
|
|------------------------------------------|
|------------------------------------------|
|--4--------4----4-----7--------7----7-----|
|--4--------4----4-----7--------7----7-----|
|--2--------2----2-----5--------5----5-----|
|------------------------------------------|


G5 F#5 B5 D5
|-------------------------------|-----------------------------------------|
|-8-8-8-8-8---8-7-7---7-7-7---7-|-12-12-12-12-12---12-12-12-12-12-12---12S|
|-------------------------------|-----------------------------------------|
|-5-5-5-5-5---5-4-4---4-4-4---4-|--9--9--9--9--9----9--9--9--9--9--9----9S|
|-------------------------------|-----------------------------------------|
|-------------------------------|-----------------------------------------|
|
|-------------------------------|-----------------------------------------|
|-------------------------------|-----------------------------------------|
|-------------------------------|--4--------4----4-----7--------7----7----|
|-5-----5---5---4---4---4---4---|--4--------4----4-----7--------7----7----|
|-5-----5---5---4---4---4---4---|--2--------2----2-----5--------5----5----|
|-3-----3---3---2---2---2---2---|-----------------------------------------|


G5 F#5
|-------------------------------------------|
|-15-15-15-15-15---15-15-15---15-15-15---15-|
|-------------------------------------------|
|-12-12-12-12-12---12-12-12---12-12-12---12-|
|-------------------------------------------|
|-------------------------------------------|
|
|-------------------------------------------|
|-------------------------------------------|
|-------------------------------------------|
|--5--------5----5-----4----4-----4----4----|
|--5--------5----5-----4----4-----4----4----|
|--3--------3----3-----2----2-----2----2----|


B5 D5 G5
|---------------------------------------------|
|-17b19--17-17-17-17---17-17-17-17-17-17---17-|
|---------------------------------------------|
|-14b16--14-14-14-14---14-14-14-14-14-14---14-|
|---------------------------------------------|
|---------------------------------------------|
|
|---------------------------------------------|
|---------------------------------------------|
|--4------------4----4-----7--------7----7----|
|--4------------4----4-----7--------7----7----|
|--2------------2----2-----5--------5----5----|
|---------------------------------------------|


F#5
|-17-17-17-17-17---17-17---(17)---|
|-17-17-17-17-17---17-17r--(17)---|
|---------------------------------|
|-14-14-14-14-14---14-14r--(14)---|
|---------------------------------|
|---------------------------------|
|
|---------------------------------|
|---------------------------------|
|---------------------------------|
|--5--------5----5-----4-4---4--4-|
|--5--------5----5-----4-4---4--4-|
|--3--------3----3-----2-2---2--2-|


B5 D5 G5 F#5 B5 D5
|-------------------|--------------------|-------------------|
|-17--15---12--15---|-17--15---12---15---|-17--15---12--10---|
|-------------------|--------------------|-------------------|
|-14--12----9--12---|-14--12----9---12---|-14--12----9---7---|
|-------------------|--------------------|-------------------|
|-------------------|--------------------|-------------------|
|
|-------------------|--------------------|-------------------|
|-------------------|--------------------|-------------------|
|--4---4-4--7---7-7-|--------------------|--4---4-4--7---7-7-|
|--4---4-4--7---7-7-|--5---5-5--4-4--4-4-|--4---4-4--7---7-7-|
|--2---2-2--5---5-5-|--5---5-5--4-4--4-4-|--2---2-2--5---5-5-|
|-------------------|--3---3-3--2-2--2-2-|-------------------|


G5 F#5 B5 D5 G5 F#5
|------------------------|--------------------|---------------------|
|-12--15---12---10-(10)\-|-/12--15---17--15---|-/12--15---17---15---|
|------------------------|--------------------|---------------------|
|--9--12----9----7--(7)\-|--/9--12---14--12---|--/9--12---14---12---|
|------------------------|--------------------|---------------------|
|------------------------|--------------------|---------------------|
|
|------------------------|--------------------|---------------------|
|------------------------|--------------------|---------------------|
|------------------------|---4---4-4--7---7-7-|---------------------|
|--5---5-5--4-4--4---4---|---4---4-4--7---7-7-|---5---5-5--4-4--4-4-|
|--5---5-5--4-4--4---4---|---2---2-2--5---5-5-|---5---5-5--4-4--4-4-|
|--3---3-3--2-2--2---2---|--------------------|---3---3-3--2-2--2-2-|


B5 D5
|---------------------------------------------|
|-17b19--17-17-17-17---17-17-17-17-17-17---17-|
|---------------------------------------------|
|-14b16--14-14-14-14---14-14-14-14-14-14---14-|
|---------------------------------------------|
|---------------------------------------------|
|
|---------------------------------------------|
|---------------------------------------------|
|--4------------4----4-----7--------7----7----|
|--4------------4----4-----7--------7----7----|
|--2------------2----2-----5--------5----5----|
|---------------------------------------------|


G5 F#5
|-17-17-17-17-17---17-17-17---17-17-17---17--||
|-17-17-17-17-17---17-17-17---17-17-17---17r-||
|--------------------------------------------||
|-14-14-14-14-14---14-14-14---14-14-14---14r-||
|--------------------------------------------||
|--------------------------------------------||
|
|--------------------------------------------||
|--------------------------------------------||
|--------------------------------------------||
|--5--------5----5-----4----4-----4----4-----||
|--5--------5----5-----4----4-----4----4-----||
|--3--------3----3-----2----2-----2----2-----||


Chorus
E5 F#5 B5 A5 G#5 G5 E5
Gtrs I, II
|-----------------|-----------------|---------------|-----------------|
|-----------------|-----------------|---------------|-----------------|
|-----------------|-----------------|-4--4-4-2--2-2-|-----------------|
|-2--2-2-(2)-2-2--|-4--4-4-(4)-4-4--|-4--4-4-2--2-2-|-6--6-6-5-5-5-2--|
|-2--2-2-(2)-2-2--|-4--4-4-(4)-4-4--|-2--2-2-0--0-0-|-6--6-6-5-5-5-2--|
|-0--0-0-(0)-0-0--|-2--2-2-(2)-2-2--|---------------|-4--4-4-3-3-3-0--|


Outro
F#5 B5 D5 G5 F#5
4x
|--------------|----------------||----------------|------------------||
|--------------|----------------||o---------------|-----------------o||
|--------------|----------------||--4--4-4-7--7-7-|------------------||
|-2--2-2-2--2--|-4--4-4-4-4-4-4-||--4--4-4-7--7-7-|-5--5-5-4-4-4-4---||
|-2--2-2-2--2--|-4--4-4-4-4-4-4-||o-2--2-2-5--5-5-|-5--5-5-4-4-4-4--o||
|-0--0-0-0--0--|-2--2-2-2-2-2-2-||----------------|-3--3-3-2-2-2-2---||


B5 D5 G5 F#5
Gtr III
|-----------------------------------------|-------------------------------------------|
|-12-12-12-12-12---12-12-12-12-12-12---12S|-15-15-15-15-15---15-15-15---15-15-15---15S|
|-----------------------------------------|-------------------------------------------|
|--9--9--9--9--9----9--9--9--9--9--9----9S|-12-12-12-12-12---12-12-12---12-12-12---12S|
|-----------------------------------------|-------------------------------------------|
|-----------------------------------------|-------------------------------------------|
|
| Gtrs I, II
|-----------------------------------------|-------------------------------------------|
|-----------------------------------------|-------------------------------------------|
|--4--------4----4-----7--------7----7----|-------------------------------------------|
|--4--------4----4-----7--------7----7----|--5--------5----5-----4----4-----4----4----|
|--2--------2----2-----5--------5----5----|--5--------5----5-----4----4-----4----4----|
|-----------------------------------------|--3--------3----3-----2----2-----2----2----|


B5 D5
|------------------------------------------|
|-12-12-12-12-12---12-12-12-12-12-12---12--|
|------------------------------------------|
|--9--9--9--9--9----9--9--9--9--9--9----9--|
|------------------------------------------|
|------------------------------------------|
|
|------------------------------------------|
|------------------------------------------|
|--4--------4----4-----7--------7----7-----|
|--4--------4----4-----7--------7----7-----|
|--2--------2----2-----5--------5----5-----|
|------------------------------------------|


G5 F#5 B5 D5
|-------------------------------|-----------------------------------------|
|-8-8-8-8-8---8-7-7---7-7-7---7-|-12-12-12-12-12---12-12-12-12-12-12---12S|
|-------------------------------|-----------------------------------------|
|-5-5-5-5-5---5-4-4---4-4-4---4-|--9--9--9--9--9----9--9--9--9--9--9----9S|
|-------------------------------|-----------------------------------------|
|-------------------------------|-----------------------------------------|
|
|-------------------------------|-----------------------------------------|
|-------------------------------|-----------------------------------------|
|-------------------------------|--4--------4----4-----7--------7----7----|
|-5-----5---5---4---4---4---4---|--4--------4----4-----7--------7----7----|
|-5-----5---5---4---4---4---4---|--2--------2----2-----5--------5----5----|
|-3-----3---3---2---2---2---2---|-----------------------------------------|


G5 F#5
|-------------------------------------------|
|-15-15-15-15-15---15-15-15---15-15-15---15-|
|-------------------------------------------|
|-12-12-12-12-12---12-12-12---12-12-12---12-|
|-------------------------------------------|
|-------------------------------------------|
|
|-------------------------------------------|
|-------------------------------------------|
|-------------------------------------------|
|--5--------5----5-----4----4-----4----4----|
|--5--------5----5-----4----4-----4----4----|
|--3--------3----3-----2----2-----2----2----|


B5 A5 G#5 B6/F#
Gtr IV
|---------------------------------------------|---------------------|-^4----*|
|-17b19==17-17-17-17---17-17-17-17-17-17---17-|-17-17---17-17r------|-^4----*|
|---------------------------------------------|---------------------|-^4----*|
|-14b16==14-14-14-14---14-14-14-14-14-14---14-|-14-14---14-14r------|-^4----*|
|---------------------------------------------|---------------------|-^2----*|
|---------------------------------------------|---------------------|-^2----*|
|
|---------------------------------------------|---------------------|-------*|
|---------------------------------------------|---------------------|-------*|
|--4------------4----4-----2--------2----2----|---------------------|-------*|
|--4------------4----4-----2--------2----2----|--6----6-----6-------|-------*|
|--2------------2----2-----0--------0----0----|--6----6-----6-------|-------*|
|---------------------------------------------|--4----4-----4-------|-------*|


Tablature Legend
----------------
h - hammer-on
p - pull-off
b - bend
pb - pre-bend
r - bend release (if no number after the r, then release immediately)
/\ - slide into or out of (from/to "nowhere")
s - legato slide
S - shift slide
- natural harmonic
[n] - artificial harmonic
n(n) - tapped harmonic
~ - vibrato
tr - trill
T - tap
TP - trem. picking
PM - palm muting
\n/ - tremolo bar dip; n = amount to dip
\n - tremolo bar down
n/ - tremolo bar up
/n\ - tremolo bar inverted dip
= - hold bend; also acts as connecting device for hammers/pulls
- volume swell (louder/softer)
x - on rhythm slash represents muted slash
o - on rhythm slash represents single note slash

Misc Legend
-----------
| - bar
|| - double bar
||o - repeat start
o|| - repeat end
*| - double bar (ending)
: - bar (freetime)
$ - Segno
& - Coda
Tempo markers - = BPM(8/16=s8/s16), where s8 = swing 8ths, s16 = swing 16ths
Song info
Hitchin A Ride
Green Day
1997
  • Rock
  • Pop Punk
  • Punk
Alternative tracks
Similar songs
In Too Deep - Sum 41
Disappearing Boy - Green Day
I Dont Want To Grow Up - Descendents
London Calling - The Clash

Hi! Hope you enjoy backing track experience.
If you want to help us in the development of the project, feel free to donate!