Hard To Beat - Hard-Fi
00:00 / 00:00
Tabs and lyrics
Tunning: Standard (E A D G B e)
Hard-fi- Hard to beat

Intro and verses:

E-10-10-6-6-6-6--8--8-|
B-11-11-8-8-8-8-10-10-|
G-12-12-8-8-8-8-10-10-|
D-12-12-8-8-8-8-10-10-|
A-10-10-6-6-6-6--8--8-|
E-10-10-6-6-6-6--8--8-|

Chorus:

E----------------------------------------------------------------------|
B----------------------------------------------------------------------|
G-8888/10------8888/10-12121212\10-12121212\10-12121212\10-12121212\10-|
D-8888/10-(x3)-8888/10-12121212\10-12121212\10-12121212\10-12121212\10-|
A-6666/8-------6666/8--10101010\8--10101010\8--10101010\8--10101010\8--|
E----------------------------------------------------------------------|

That's all I've got for now
Tunning: Standard (E A D G B e)
-------------------------------------------------------------------------------
HARD TO BEAT - Hard-Fi
-------------------------------------------------------------------------------
Tabbed by: Sam Allen
Email: allenscool@hotmail.co.uk
Tuning: standard

INTRO/VERSE
Gm Cm7 Dm7
e|-10-10---8-8---|-8-8----10-10---|
B|-11-11---8-8---|-8-8----10-10---|
G|-12-12---8-8---|-8-8----10-10---| X 8
D|-12-12---8-8---|-8-8----10-10---|
A|-10-10---X-X---|-X-X-----X--X---|
E|---------8-8---|-8-8----10-10---|

VERSE PART 2
Ah yeh girl you've got something I like....
Cm7 Dm7 Cm7 Dm7 Cm7 Dm7 Cm7 Dm7
e|-8------10---8-|-------10---8-|-8------10--8-|-------10-------|
B|-8------10---8-|-------10---8-|-8------10--8-|-------10-------|
G|-8------10---8-|-------10---8-|-8------10--8-|-------10-------|
D|-8------10---8-|-------10---8-|-8------10--8-|-------10-------|
A|-X-------X---X-|--------X---X-|-X-------X--X-|--------X-------|
E|-8------10---8-|-------10---8-|-8------10--8-|-------10-------|

PRE-CHORUS
Cm7 Dm7 Cm7 Dm7 Cm7
e|-8--8-8-8-8-8-8---10---8-|-8--8-8-8-8-8-8---10---8-|
B|-8--8-8-8-8-8-8---10---8-|-8--8-8-8-8-8-8---10---8-|
G|-8--8-8-8-8-8-8---10---8-|-8--8-8-8-8-8-8---10---8-|
D|-------------------------|-------------------------|
A|-------------------------|-------------------------|
E|-------------------------|-------------------------|

e|-8--8-8-8-8-8-8---10---8-|-8--8-8-8-X-10-----10-|
B|-8--8-8-8-8-8-8---10---8-|-8--8-8-8-X-10-----11-|
G|-8--8-8-8-8-8-8---10---8-|-8--8-8-8-X-10-----12-|
D|-------------------------|-------------------13-|
A|-------------------------|----------------------|
E|-------------------------|----------------------|

e|---10-10-10-10-10-10---10---10-|
B|---11-11-11-11-11-11---10---11-|
G|---12-12-12-12-12-12---10---12-|
D|---13-13-13-13-13-13---12---13-| X 3
A|-------------------------------|
E|-------------------------------|

e|-10--10-10-10--13------8-|
B|-11--11-11-11--13------8-|
G|-12--12-12-12--14------8-|
D|-13--13-13-13--15------8-|
A|-----------------------X-|
E|-----------------------8-|

CHORUS
You know I love ya....
e|-8--8--8--8---10---8-|--|-8--8--8----10--10-----6-|
B|-8--8--8--8---10---8-|--|-8--8--8----10--10-----8-|
G|-8--8--8--8---10---8-|X3|-8--8--8----10--10-----7-|
D|-8--8--8--8---10---8-|--|-8--8--8----10--10-----8-|
A|-X--X--X--X----------|--|-----------------------6-|
E|-8--8--8--8---10---8-|--|-8--8--8----10--10-------|

e|--6--6--6---5---6-|--|--6--6---------------8-|
B|--8--8--8---6---8-|--|--8--8---------------8-|
G|--7--7--7---5---7-|--|--7--7---------------8-|
D|--8--8--8---7---8-|X3|--8--8--10---10--10--8-|
A|--6--6--6---5---6-|--|--6--6--8----8---8---X-|
E|------------------|--|---------------------8-|

BRIDGE
e|-8-----10-|----10----8-|----8---|-10---10-|
B|-8-----10-|----11----8-|----8---|-10---11-|
G|-8-----10-|----12----8-|----8---|-10---12-|
D|----------|------------|--------|---------| X2
A|----------|------------|--------|---------|
E|----------|------------|--------|---------|

THAT'S IT THIS IS THE DIFFERENT PARTS, YOU JUST HAVE TO PUT 'EM
TOGETHER.
| / slide up
| \ slide down
| h hammer-on
| p pull-off
| ~ vibrato
| + harmonic
| x Mute note
===============================================================================
Song info
Hard To Beat
Hard-Fi
2001
  • Rock
  • Garage Rock
Alternative tracks
Similar songs
Hard To Beat - Hard-Fi
Hang On Sloopy - The McCoys
Maps - Yeah Yeah Yeahs
Juicebox - The Strokes
Steady As She Goes - The Raconteurs

Hi! Hope you enjoy backing track experience.
If you want to help us in the development of the project, feel free to donate!