Oh My God - Ida Maria
00:00 / 00:00
Tabs and lyrics
Tunning: Standard (E A D G B e)
"Oh My God"

By: Ida Maria

From their appearance on Later With Jools Holland

(Intro)


A B C# D
E----------------------------------------------|
B------------------------2--2222-2222-2222-33--|
G--2--2222-2222-2222-44------------------------|
D----------------------------------------------|
A----------------------------------------------|
E----------------------------------------------|


E D C# B E
E------------------22----------------------------|
B--5--5555-5555-55-33--2--2222-2222--------------|
G-----------------------------------4444-4-4p2---|
D------------------------------------------------|
A------------------------------------------------|
E------------------------------------------------|


(Verse 1)

E G#
E--------------------------|
B--------------------------|
G--------------------------|
D--2222-2222-2222-4444-----| (4X)
A--------------------------|
E--------------------------|


(Chorus 4x)

F#m Dsus A
E---2-2-2--2-2-2-2---0-0-0-0-------------|
B---2-2-2--2-2-2-2---3-3-3-3-------------|
G---2-2-2--2-2-2-2---2-2-2-2---2-2-2-2---|
D---4-4-4--4-4-4-4---0-0-0-0---2-2-2-2---|
A---4-4-4--4-4-4-4-------------0-0-0-0---|
E---2-2-2--2-2-2-2-----------------------|


(Verse 2)

E F#
E-----------------------------------------|
B-----------------------------------------|
G-----------------------------------------|
D--2222-2222-2222-4444--------------------| (4x then...)
A-----------------------------------------|
E-----------------------------------------|


C# D E F#
E------------------------------------------22---|
B--2222-2222-2222-22-33--5555-5555-5555-55------|
G-----------------------------------------------|
D-----------------------------------------------|
A-----------------------------------------------|
E-----------------------------------------------|


E D C# B
E----------------------------------------------|
B--5555-5555-5555-3333--2222-2222-2222-22------|
G-----------------------------------------44---|
D----------------------------------------------|
A----------------------------------------------|
E----------------------------------------------|


(Chorus 4x)

(Bridge/Lead)

E--5420---------------------------------------------|
B-------320-----------------------------------------|
G-----------21--------------------------------------|
D--------------420-------------------------2-4-2----|
A------------------42--------------222-444----------|
E--------------------4/5--5555-55-------------------|


E--5420--------------------------------------------|
B-------320----------------------------------------|
G-----------21------------------------22-11--------|
D--------------420----------------222-------2/4----|
A------------------42-----222-444------------------|
E---------------------555--------------------------|


F# E
E------------------------------------5420-------------|
B------------------------------3p2p0------320---------|
G-----------66----66--------------------------21------|
D--44-44-44----44----44-\-222--------------------42---|
A-----------------------------------------------------|
E-----------------------------------------------------|

D C#
E-----------------------------------------5420---------------|
B--------0---2---2---0---2---0-------0---------320-----------|
G--------------------------------------------------21--------|
D--0--00---0---0---0---0---0--------------------------420----|
A--------------------------------44----4------------------4--|
E------------------------------------------------------------|

B
E---------------------------------5420----------------|
B--------------2-----------2-----------320------------|
G--------4-----------4---------------------21---------|
D---------------------------------------------420-----|
A--222------2-----2-----2-----2-------------------42--|
E-----------------------------------------------------|


(Chorus 4x)


(Bridge 2)

E D C# B
E-----------------------------------------------|
B-----------------------------------------------|
G-------------7777-7777--6666-6666--4444-4444---|
D--2222-2222--7777-7777--6666-6666--4444-4444---|
A--2222-2222--5555-5555--4444-4444--2222-2222---|
E--0000-0000------------------------------------|


(Chorus) ...until end of song
Song info
Oh My God
Ida Maria
2001
  • Rock
  • Indie Rock
  • Pop Rock
Similar songs
Little Red Riding Hood - Sam The Sham And The Pharaohs
Shes Not There - The Zombies
Flash - Queen
Addicted To Love - Robert Palmer

Hi! Hope you enjoy backing track experience.
If you want to help us in the development of the project, feel free to donate!