No More Lies - Iron Maiden
00:00 / 00:00
Tabs and lyrics
Tunning: Standard (E A D G B e)
No More Lies
Iron Maiden
Dance of Death
Tabbed by: cpt_pimp (wigga123@hotmail.com)

[Intro]

e|------------------------------------------------| \
B|------------------------------------------------| \
G|------------------------------------------------| \
D|---9-7-9--7-9-7-9-9--7-9-7-9-9--7-9-10-12-10-9--| \
A|-7----------------------------------------------| \
E|------------------------------------------------| \
Repeat x2
e|------------------------------------------------| /
B|------------------------------------------------| /
G|------------------------------------------------| /
D|-7-9-7-5-5--4-5-4-5-5--4-5-4-2-2----2---2-------| /
A|----------------------------------5---5---5-7---| /
E|------------------------------------------------| /

e|----------------|---------------------|
B|----------------|---------------------|
G|---9-9-9-9-7-9--|---9-9-9-9-10-9-7-9--| Repeat x3
D|-7--------------|-7-------------------|
A|----------------|---------------------|
E|----------------|---------------------|

e|----------------|---------------------|
B|----------------|---------------------|
G|---9-9-9-9-7-9--|---9-9-9-9-10-9-10-9-|
D|-7--------------|-7-------------------|
A|----------------|---------------------|
E|----------------|---------------------|

e|-5-7-8--5-7-8--5-7-8--10-8-7-8-7----|
B|--------------------------------8---|
G|------------------------------------| Repeat x4
D|------------------------------------|
A|------------------------------------|
E|------------------------------------|


[Verse]

(repeat them as necessary, i just put 3 of each as an example)
e|----------------------------------------------------|
B|----------------------------------------------------|
G|----------------------------------------------------|
D|---9---9---9----5---5---5----7---7---7----7---7--7--|
A|-7---7---7----3---3---3----5---5---5----7---7--7----|
E|----------------------------------------------------|

No more lies, No more lies, No more lies, No more lies
e|---------------------------------------------------|
B|---------------------------------------------------|
G|---------------------------------------------------|
D|-7-----------3-------------5-------------7---------|
A|-7-----------3-------------5-------------7---------|
E|-5-----------1-------------3-------------5---------|


[Verse 2]

(these are basically the chords, just repeat as necessary)
e|---------------------|
B|---------------------|
G|---------------------|
D|-7---3---5---5---7---|
A|-7---3---5---5---7---|
E|-5---1---3---5---5---|
Tunning: Standard (E A D G B e)
Iron Maiden - No More Lies

TUNING : E

INtRO 1 - repeat 2x - clean

Gtr.1
|----------------------------------------------------------------------------|
|----------------------------------------------------------------------------|
|---9-7-9--7-9-7-9--9--7-9-7-9--9--7-9-10-12-10-9-7-9-7----------------------|
|-7-----------------------------------------------------10--10--9-10-9-10--10|
|----------------------------------------------------------------------------|
|----------------------------------------------------------------------------|

|---------------------------|
|---------------------------|
|-------------------------7-|
|-9-10-9-7--7--5-7-5-7-5----|
|---------------------------|
|---------------------------|

Gtr.2
|----12-10-12--10-12-10-12--12--10-12-10-12--12--10-12-13-15-13-12-10-12-10---|
|-10--------------------------------------------------------------------------|
|-----------------------------------------------------------------------------|
|-----------------------------------------------------------------------------|
|-----------------------------------------------------------------------------|
|-----------------------------------------------------------------------------|

|-------------------------------------------------------10-|
|-13--13--12-13-12-13--13--12-13-12-10--10--8-10-8-10-8----|
|----------------------------------------------------------|
|----------------------------------------------------------|
|----------------------------------------------------------|
|----------------------------------------------------------|

Gtr.3
|-----------------------------------------------------------------|
|-----------------------------------------------------------------|
|-----------------------------------------------------------------|
|---9---9---9---9-9---9---9-9---9---9---9---9---5-5---5---5-5---5-|
|-7---7---7---7-----7---7-----7---7---7---7---3-----3---3-----3---|
|-----------------------------------------------------------------|

|-------------------|
|-------------------|
|-------------------|
|---2-2---2---2---7-|
|-0-----0---0---5---|
|-------------------|


INTRO 2 - repeat 4x - clean

Gtr.1
|------------------------------------|
|------------------------------------|
|----9-9-9-9-7-9----9-9-9-9-10-9-7-9-|
|-7---------------7------------------|
|------------------------------------|
|------------------------------------|

4th time play

|-------------------------------------|
|-------------------------------------|
|----9-9-9-9-7-9----9-9-9-9-10-9-10-9-|
|-7---------------7-------------------|
|-------------------------------------|
|-------------------------------------|

Gtr.2
|----------------------------------------------------------------------|
|----------------------------------------------------------------------|
|----------------------------------------------------------------------|
|----14----14----14----14----14----14----14----14---10---10---10---10--|
|-12----12----12----12----12----12----12----12----8----8----8----8-----|
|----------------------------------------------------------------------|

|--------------------------------------------|
|--------------------------------------------|
|--------------------------------------------|
|---5---5---5---5----12-----12-----12-----12-|
|-3---3---3---3---10-----10-----10-----10----|
|--------------------------------------------|

|----------------------------------------------------------------------|
|----------------------------------------------------------------------|
|----------------------------------------------------------------------|
|----14----14----14----14----14----14----14----14---7----7----7----7---|
|-12----12----12----12----12----12----12----12----5----5----5----5-----|
|----------------------------------------------------------------------|

|--------------------------------------------|
|--------------------------------------------|
|--------------------------------------------|
|---5---5---5---5----12-----12-----12-----12-|
|-3---3---3---3---10-----10-----10-----10----|
|--------------------------------------------|

INTRO 3 - repeat 4x - clean

Gtr.1
|----------------------------------------------------|
|-10--12-13--10--12-13--10--12-13--15-13-12-13-12----|
|-------------------------------------------------12-|
|----------------------------------------------------|
|----------------------------------------------------|
|----------------------------------------------------|

Gtr.2
|----------------------------------------------------------------------|
|----------------------------------------------------------------------|
|----------------------------------------------------------------------|
|----14----14----14----14----14----14----14----14---10---10---10---10--|
|-12----12----12----12----12----12----12----12----8----8----8----8-----|
|----------------------------------------------------------------------|

|----------------------------|
|----------------------------|
|----------------------------|
|----12-----12-----12-----12-|
|-10-----10-----10-----10----|
|----------------------------|

|----------------------------------------------------------------------|
|----------------------------------------------------------------------|
|----------------------------------------------------------------------|
|----14----14----14----14----14----14----14----14---7----7----7----7---|
|-12----12----12----12----12----12----12----12----5----5----5----5-----|
|----------------------------------------------------------------------|

|----------------------------|
|----------------------------|
|----------------------------|
|----12-----12-----12-----12-|
|-10-----10-----10-----10----|
|----------------------------|

INTRO END

Verse 1 - repeat 4x - clean

Gtr.1
|-------------------------------------------------|
|-------------------------------------------------|
|-------------------------------------------------|
|----14----14----14----14----14----14----14----14-|
|-12----12----12----12----12----12----12----12----|
|-------------------------------------------------|

|-------------------------------------------------|
|-------------------------------------------------|
|-------------------------------------------------|
|---10----10----10----10----10----10----10----10--|
|-8-----8-----8-----8-----8-----8-----8-----8-----|
|-------------------------------------------------|

|-------------------------------------------------|
|-------------------------------------------------|
|-------------------------------------------------|
|---7----7----7----7----7----7----7----7----------|
|-5----5----5----5----5----5----5----5------------|
|-------------------------------------------------|

|-------------------------------------------------|
|-------------------------------------------------|
|-------------------------------------------------|
|----12----12----12----12----12----12----12-------|
|-10----10----10----10----10----10----10----10----|
|-------------------------------------------------|

Gtr2
|------------|
|------------|
|----------9-|
|---9-10-9---|
|-7----------|
|------------|

Verse 2 - repeat 2x - clean

|-------------------------------------------------|
|-------------------------------------------------|
|-------------------------------------------------|
|----14-----14-----14-----14---7----7----7----7---|
|-12-----12-----12-----12----5----5----5----5-----|
|-------------------------------------------------|

|------------------------------------|
|------------------------------------|
|------------------------------------|
|---5---5---5---5--------------------|
|-3---3---3---3-----5----5----5----5-|
|-----------------3----3----3----3---|

|-------------------------------------------------|
|-------------------------------------------------|
|-------------------------------------------------|
|----14-----14-----14-----14---7----7----7----7---|
|-12-----12-----12-----12----5----5----5----5-----|
|-------------------------------------------------|

|-----------------------------------------|
|-----------------------------------------|
|-----------------------------------------|
|---5---5---5---5----12----12----12----12-|
|-3---3---3---3---10----10----10----10----|
|-----------------------------------------|

CHORUS - repeat 2x - distrotion

|--------------------------------------------|
|--------------------------------------------|
|--------------------------------------------|
|-7-7-7-7-7--7-7-7-7-7--3-3-3-3-3--3-3-3-3-3-|
|-7-7-7-7-7--7-7-7-7-7--3-3-3-3-3--3-3-3-3-3-|
|-5-5-5-5-5--5-5-5-5-5--1-1-1-1-1--1-1-1-1-1-|

|--------------------------------------------|
|--------------------------------------------|
|----------------------7-7-7-7-7--7-7-7-7-7--|
|-5-5-5-5-5--5-5-5-5-5-7-7-7-7-7--7-7-7-7-7--|
|-5-5-5-5-5--5-5-5-5-5-5-5-5-5-5--5-5-5-5-5--|
|-3-3-3-3-3--3-3-3-3-3-----------------------|

VERSE 1 - repeat i_don't_know_how_many_times - distortion

|----------------------------------------------------------------|
|----------------------------------------------------------------|
|----------------------------------------------------------------|
|------7-------7-------7-------7-------3-------3-------3-------3-|
|------7-------7-------7-------7-------3-------3-------3-------3-|
|-5-5--5--5-5--5--5-5--5--5-5--5--1-1--1--1-1--1--1-1--1--1-1--1-|

|----------------------------------------------------------------|
|----------------------------------------------------------------|
|------7-------7-------7-------7---------------------------------|
|------7-------7-------7-------7-------5-------5-------5-------5-|
|-5-5--5--5-5--5--5-5--5--5-5--5-------5-------5-------5-------5-|
|---------------------------------3-3--3--3-3--3--3-3--3--3-3--3-|

VERSE 2

|---------------------------------------|
|---------------------------------------|
|---------------------------------------|
|-14--14--14--7--7--7--5--5--5----------|
|-12--12--12--5--5--5--3--3--3--5--5--5-|
|-------------------------------3--3--3-|

|------------------------------------------|
|------------------------------------------|
|------------------------------------------|
|-14--14--14--7--7--7--5--5--5--12--12--12-|
|-12--12--12--5--5--5--3--3--3--10--10--10-|
|------------------------------------------|

CHORUS
CHORUS w/ VERSE 1 RIFF
VERSE 1 w/ ALL INTRO RIFFS
SOLO - not tabbed...too lazy w/ VERSE 1 RIFF
VERSE 2
CHORUS
CHORUS w/ VERSE 1 RIFF
some variation od VERSE 1 RIFF w/ all intro riffs
INTRO 2
END


BY Gandalph915..any comments etc. send to euronymous915@centrum.cz
Tunning: Standard (E A D G B e)
Band: Iron Maiden
Song: No More Lies
Album: Dance Of Death

Maiden Rule, Up The Irons
Intro
E------------------------------------------------|
B------------------------------------------------|
G---9-7-9--7-9-7-9-9--7-9-7-9-9--7-9-10-12-10-9--|
D--7---------------------------------------------|
A------------------------------------------------|
E------------------------------------------------|

E----------------------------------------------------|
B----------------------------------------------------|
G--7-9-7------------------------------------------5--|
D-------10-10--9-10-9-10-10--9-10-9-7-7--5-7-5-7-5---|
A----------------------------------------------------|
E----------------------------------------------------|

E-----------------------------------|----------------------|
B-----------------------------------|----------------------|
G---9-9-9-9-7-9---9-9-9-9-10-9-7-9--|---9-9-9-9-10-9-10-9--|
D--7-------------7------------------|--7-------------------|
A-----------------------------------|----------------------|
E-----------------------------------|----------------------|

E--5-7-8--5-7-8--5-7-8--10-8-7-8-7---|
B---------------------------------8--|
G------------------------------------|
D------------------------------------|
A------------------------------------|
E------------------------------------|

Verse 1
E------------------------------------------------------------|
B------------------------------------------------------------|
G------------------------------------------------------------|
D----9---9---9----5---5---5------7---7---7------5---5---5----|
A--7---7---7---7-3---3---3--3--5---5---5---5--5---5---5---5--|
E------------------------------------------------------------|

Pre Chorus 1
E-------------------------------------------|
B-------------------------------------------|
G-------------------------------------------|
D-------------------------------------------|
A----7---7-----3---3-----5---5-----5---5----|
E--5---5---5-1---1---1-3---3---3-3---3---3--|

Chorus
E-----------------|
B-----------------|
G-----------------|
D--7---3---5---5--|
A--7---3---5---5--|
E--5---1---3---3--|

Verse 2
E-----------------------|
B-----------------------|
G-----------------------|
D--7-----3-----5-----5--|
A--7-----3-----5-----5--|
E--5-----1-----3-----3--|

Pre Chorus
E-----------------|
B-----------------|
G-----------------|
D--7---3---5---5--|
A--7---3---5---5--|
E--5---1---3---3--|

Chorus
E-----------------|
B-----------------|
G-----------------|
D--7---3---5---5--|
A--7---3---5---5--|
E--5---1---3---3--|

Faster more powerful intro
E------------------------------------------------|
B------------------------------------------------|
G---9-7-9--7-9-7-9-9--7-9-7-9-9--7-9-10-12-10-9--|
D--7---------------------------------------------|
A------------------------------------------------|
E------------------------------------------------|

E----------------------------------------------------|
B----------------------------------------------------|
G--7-9-7------------------------------------------5--|
D-------10-10--9-10-9-10-10--9-10-9-7-7--5-7-5-7-5---|
A----------------------------------------------------|
E----------------------------------------------------|

E-----------------------------------|----------------------|
B-----------------------------------|----------------------|
G---9-9-9-9-7-9---9-9-9-9-10-9-7-9--|---9-9-9-9-10-9-10-9--|
D--7-------------7------------------|--7-------------------|
A-----------------------------------|----------------------|
E-----------------------------------|----------------------|

E--5-7-8--5-7-8--5-7-8--10-8-7-8-7---|
B---------------------------------8--|
G------------------------------------|
D------------------------------------|
A------------------------------------|
E------------------------------------|

Daves Solo
--------------------------------|
--------------------------------|
--7b-9-9-9-9-9-9-9-9-9-9--------|
--------------------------------|
--------------------------------|
--------------------------------|

--------12-15-12----12h15h12----12h15h12-----12h15h12----|
-----13----------15b---------15b---------15b----------15-|
--14-----------------------------------------------------|
---------------------------------------------------------|
---------------------------------------------------------|
---------------------------------------------------------|

-----12h17h12------------------------------------------------|
--13----------13-12h13h12----12h13h12------------------------|
--------------------------14----------14r--14h12-14-12-------|
-------------------------------------------------------14-12-|
-------------------------------------------------------------|
-------------------------------------------------------------|

----------------------------------12-15b---15b---|
--12h15h12h15------------------13----------------|
--------------12h14h12h14/7/14-------------------|
-------------------------------------------------|
-------------------------------------------------|
-------------------------------------------------|

----------17--20-19h20h19-17-19~-------|--20--19--17------------------------|
------17-------------------------------|--------------20--18--17------------|
--17-----------------------------------|--------------------------19~-------|
---------------------------------------|------------------------------------|
---------------------------------------|------------------------------------|
---------------------------------------|------------------------------------|

--------17----------------------------------|
-----17----17----------------------17h20h17-|
--19----------19r--17h19-------19b----------|
--------------------------------------------|
--------------------------------------------|
--------------------------------------------|

---------------------------17h20h17----------------|
-----17h20h17-----17h20h17----------17-20b---20b---|
--19b---------19b----------------------------------|
---------------------------------------------------|
---------------------------------------------------|
---------------------------------------------------|

Adrians Solo
-------------------------------|---------------------------------------|
-------------------------------|----------------------8---------8-10---|
-------------------------------|--7---------9------7-----9--10---------|
--7--------7--9--10--7--9--10--|-----9--10-----10----------------------|
-------------------------------|---------------------------------------|
-------------------------------|---------------------------------------|

-------5h8h5-----------5----------------|----------------------------------|
----8b-------5h8h5---5---8h5------------|-----------------8----------------|
-------------------7b--------7h5---5h7--|------7-9-10-9-7---9-10-----------|
---------------------------------7------|----7-------------------10-9-10---|
----------------------------------------|----------------------------------|
----------------------------------------|----------------------------------|

--12h17h12----------12h17h12----------12h17h12----------12h17h12-------|
-----------13----13----------13----13----------13----13----------------|
--------------14----------------14----------------14-------------14-14-|
-----------------------------------------------------------------------|
-----------------------------------------------------------------------|
-----------------------------------------------------------------------|

-------------------------------------|
-------------------------------------|
------14-12-10----12----10----9------|
---------------14----14----12--------|
--------------------------------12---|
-------------------------------------|

--------------------------------12-------12-13----|
-----12-13----12-13-15-12-13-15----13-15-------15-|
--14-------14-------------------------------------|
--------------------------------------------------|
--------------------------------------------------|
--------------------------------------------------|

--------------------------17------17--19b---|
--17--18--20--17--18--20------20------------|
--------------------------------------------|
--------------------------------------------|
--------------------------------------------|
--------------------------------------------|

Janicks Solo
---------------------------------|
---------------------------------|
--7b---------7-5-4h5-4h5-4h5-4h5-|
---------------------------------|
---------------------------------|
---------------------------------|

-----------------------------------------------|
-----------------------------------------------|
--4h5h4h5h4h5h4h5-4h5h4h5-5h7h5h7h7------------|
--------------------------------------7h5------|
------------------------------------------7----|
-----------------------------------------------|

-------------------------------------------|
--15b----15-13-12-13-15h13h12-13-15--13----|
----------------------------------------14-|
-------------------------------------------|
-------------------------------------------|
-------------------------------------------|

-----------12------------------------------|
--12-13-15-----15-13-12-15-13h12-----------|
---------------------------------14-12-----|
-------------------------------------------|
-------------------------------------------|
-------------------------------------------|

---------------------------17-------17-19-20-22-|
------17----17-18-17-18-20----18-20-------------|
--19b----19-------------------------------------|
------------------------------------------------|
------------------------------------------------|
------------------------------------------------|

---20-19-17----17--------------17--------|
------------17----17-20b----17----17-20--|b
-----------------------------------------|
-----------------------------------------|
-----------------------------------------|
-----------------------------------------|

----------------------------------------------------------------|
----------------------------------------------------------------|
----19h17-12h14h12h14h12h14-------------------------------------|
----------------------------12h14h12h14h12h14-10h12h10h12-------|
----------------------------------------------------------12/---|
----------------------------------------------------------------|

-------------------------------------------------------------------------------|
--17h20h17----17h20h17----17h20h17----17h20h17----17h20h17----17h20h17----20~--|
-----------19----------19----------19----------19----------19----------19------|
-------------------------------------------------------------------------------|
-------------------------------------------------------------------------------|
-------------------------------------------------------------------------------|

Pre Chorus
E-----------------|
B-----------------|
G-----------------|
D--7---3---5---5--|
A--7---3---5---5--|
E--5---1---3---3--|

Chorus
E-----------------|
B-----------------|
G-----------------|
D--7---3---5---5--|
A--7---3---5---5--|
E--5---1---3---3--|

Outro
E------------------------------------------------|
B------------------------------------------------|
G---9-7-9--7-9-7-9-9--7-9-7-9-9--7-9-10-12-10-9--|
D--7---------------------------------------------|
A------------------------------------------------|
E------------------------------------------------|

E----------------------------------------------------|
B----------------------------------------------------|
G--7-9-7------------------------------------------5--|
D-------10-10--9-10-9-10-10--9-10-9-7-7--5-7-5-7-5---|
A----------------------------------------------------|
E----------------------------------------------------|

E-------------------------------------|
B-------------------------------------|
G---9-9-9-9-7-9---9-9-9-9-10-9-7-9----|
D--7-------------7-----------------7--|
A-------------------------------------|
E-------------------------------------|
Tunning: Standard (E A D G B e)
Intro
E----12---12----12---12-12---12---12-12----12-13-15-13-12-----|
B------15-----15---15------15--15-------15--------------------|
G-14----------------------------------------------------------|
D-------------------------------------------------------------|
A-------------------------------------------------------------|
E-------------------------------------------------------------|

E----12-----------------------------------------------------------|
B--15--15--13-13—-12-13-12-13-13—-12-13-12---------------------15-|
G------------------------------------------14-14-12-14-12-14-12---|
D-----------------------------------------------------------------|
A-----------------------------------------------------------------|
E-----------------------------------------------------------------|

E----12---12----12---12-12---12---12-12----12-13-15-13-12-----|
B------15-----15---15------15--15-------15--------------------|
G-14----------------------------------------------------------|
D-------------------------------------------------------------|
A-------------------------------------------------------------|
E-------------------------------------------------------------|

E----12-----------------------------------------------------------|
B--15--15--13-13—-12-13-12-13-13—-12-13-12---------------------15-|
G------------------------------------------14-14-12-14-12-14-12---|
D-----------------------------------------------------------------|
A-----------------------------------------------------------------|
E-----------------------------------------------------------------|

X4
E---------------------------------------------------------|
B---------------------------------------------------------|
G---9-9-9-9-7-9---9-9-9-9-10-9-7-9-----9-9-9-9-10-9-10-9--|
D--7-------------7--------------------7-------------------|
A---------------------------------------------------------|
E---------------------------------------------------------|
X4
E---------------------------------10-------------------|
B-10-12-13---10-12-13---10-12-13----13-12-13-12--------|
G----------------------------------------------12------|
D------------------------------------------------------|
A------------------------------------------------------|
E------------------------------------------------------|

Verse 1
E-----------------------------------------------------------------|
B-----------------------------------------------------------------|
G-----------------------------------------------------------------|
D-----------------------------------------------------------------|
A---7---7---7---7---7---7---7--------3---3---3---3---3---3---3----|
E-5---5---5---5---5---5---5---5----1---1---1---1---1---1---1---3--|
X4
E---------------------------------------------------------------0--------|
B-------------------------------------------------------0-1-0---1--------|
G---------------------------------------------------------------2--------|
D---7---7---7---7---7---7---7--------------------------------------------|
A-5---5---5---5---5---5---5---5-----5---5---5---5---5--------------------|
E---------------------------------3---3---3---3---3----------------------|







Pre Chorus
E-------------------------------------------------------------------|
B-------------------------------------------------------------------|
G-------------------------------------------------------------------|
D-------------------------------------7---7---7---------------------|
A---7---7---7--------1---1---1------5---5---5---5-----5---5---5-----|
E-5---5---5---5----3---3---3---3--------------------3---3---3---3---|

E-------------------------------------------------------------------------|
B-------------------------------------------------------------------------|
G-------------------------------------------------------------------------|
D-------------------------------------7---7---7---------------------------|
A---7---7---7--------1---1---1------5---5---5---5-----5---5---5-----------|
E-5---5---5---5----3---3---3---3--------------------3---3---3---3---------|

E-------------------------------------------------------------------------|
B-------------------------------------------------------------------------|
G-------------------------------------------------------------------------|
D-------------------------------------7---7---7---------------------------|
A---7---7---7--------1---1---1------5---5---5---5-----5---5---5-----------|
E-5---5---5---5----3---3---3---3--------------------3---3---3---3---------|


E---------------------------------------------------------------------|
B---------------------------------------------------------------------|
G---------------------------------------------------------------------|
D-------------------------------------7---7---7-----------------------|
A---7---7---7--------1---1---1------5---5---5---5-----5---5---5---5---|
E-5---5---5---5----3---3---3---3--------------------3---3---3---3-----|


E----------------------|
B----------------------|
G----------------------|
D----------------------|
A---5---5---5---5------|
E-3---3---3---3--------|


Chorus
E-----------------------------------------------------------------------|
B-----------------------------------------------------------------------|
G-----------------------------------------------------------------------|
D--7-7-7-7-7--7-7-7-7-7---3-3-3-3-3--3-3-3-3-3---3-3-3-3-3--3-3-3-3-3---|
A--7-7-7-7-7--7-7-7-7-7---3-3-3-3-3--3-3-3-3-3---3-3-3-3-3--3-3-3-3-3---|
E--5-5-5-5-5--5-5-5-5-5---1-1-1-1-1--1-1-1-1-1---5-5-5-5-5--5-5-5-5-5---|

E-------------------------|
B-------------------------|
G-7-7-7-7-7--7-7-7-7-7----|
D-7-7-7-7-7--7-7-7-7-7----|
A-5-5-5-5-5--5-5-5-5-5----|
E-------------------------|


Verse II
E-------------------------------------------------------------------------|
B-------------------------------------------------------------------------|
G-------------------------------------------------------------------------|
D-----7------7------7------7------3------3------3----3--------------------|
A-----7------7------7------7------3------3------3----3--------------------|
E-5-5-5--5-5-5--5-5-5--5-5-5--1-1-1--1-1-1--1-1-1--1-1--------------------|

X2
E---------------------------------------------------------------------|
B---------------------------------------------------------------------|
G-----7------7------7------7------------------------------------------|
D-----7------7------7------7-------5------5------5------5-------------|
A-5-5-5--5-5-5--5-5-5--5-5-5-------5------5------5------5-------------|
E------------------------------3-3-3--3-3-3--3-3-3--3-3-3-------------|

Pre Chorus X2
E-------------------------------------------------------------------|
B-------------------------------------------------------------------|
G-------------7---7---7---5---5---5---------------------------------|
D-7---7---7---7---7---7---5---5---5---5---5---5---------------------|
A-7---7---7---5-5-5-5-5---3-3-3-3-3---5---5---5---------------------|
E-5-5-5-5-5---------------------------3-3-3-3-3---------------------|


Chorus
E-----------------------------------------------------------------------|
B-----------------------------------------------------------------------|
G-----------------------------------------------------------------------|
D--7-7-7-7-7--7-7-7-7-7---3-3-3-3-3--3-3-3-3-3---3-3-3-3-3--3-3-3-3-3---|
A--7-7-7-7-7--7-7-7-7-7---3-3-3-3-3--3-3-3-3-3---3-3-3-3-3--3-3-3-3-3---|
E--5-5-5-5-5--5-5-5-5-5---1-1-1-1-1--1-1-1-1-1---5-5-5-5-5--5-5-5-5-5---|

E-------------------------|
B-------------------------|
G-7-7-7-7-7--7-7-7-7-7----|
D-7-7-7-7-7--7-7-7-7-7----|
A-5-5-5-5-5--5-5-5-5-5----|
E-------------------------|

Intro (little faster and more powerful)
E-------------------------------------------------------------------------|
B-----------------------------------6-8-6---------------------------------|
G--9-7-9--7-9-7-9-9--7-9-7-9-9--7-9-------9-7-9--7------------------------|
D-7------------------------------------------------10-10-9-10-9-10-10-9-10|
A-------------------------------------------------------------------------|
E-------------------------------------------------------------------------|

E---------------------------------------------|
B---------------------------------------------|
G-------------------7-------------------------|
A-9-7-7—-5-7-5-7--5---------------------------|
D---------------------------------------------|
E---------------------------------------------|

E-------------------------------------------------------------------------|
B-----------------------------------6-8-6---------------------------------|
G--9-7-9--7-9-7-9-9--7-9-7-9-9--7-9-------9-7-9--7------------------------|
D-7------------------------------------------------10-10-9-10-9-10-10-9-10|
A-------------------------------------------------------------------------|
E-------------------------------------------------------------------------|

E---------------------------------------------|
B---------------------------------------------|
G-------------------7-------------------------|
A-9-7-7—-5-7-5-7--5---------------------------|
D---------------------------------------------|
E---------------------------------------------|

X4
E----------------------------------------------------------|
B----------------------------------------------------------|
G---9-9-9-9-7-9---9-9-9-9-10-9-7-9------9-9-9-9-10-9-10-9--|
D--7-------------7---------------------7-------------------|
A----------------------------------------------------------|
E----------------------------------------------------------|
X4
E---------------------------------10-------------------|
B-10-12-13---10-12-13---10-12-13----13-12-13-12--------|
G----------------------------------------------12------|
D------------------------------------------------------|
A------------------------------------------------------|
E------------------------------------------------------|


Daves Solo
--------------------------------|
--------------------------------|
--7b-9-9-9-9-9-9-9-9-9-9--------|
--------------------------------|
--------------------------------|
--------------------------------|

--------12-15-12----12h15h12----12h15h12-----12h15h12----|
-----13----------15b---------15b---------15b----------15-|
--14-----------------------------------------------------|
---------------------------------------------------------|
---------------------------------------------------------|
---------------------------------------------------------|

-----12h17h12------------------------------------------------|
--13----------13-12h13h12----12h13h12------------------------|
--------------------------14----------14r--14h12-14-12-------|
-------------------------------------------------------14-12-|
-------------------------------------------------------------|
-------------------------------------------------------------|

----------------------------------12-15b---15b---|
--12h15h12h15------------------13----------------|
--------------12h14h12h14/7/14-------------------|
-------------------------------------------------|
-------------------------------------------------|
-------------------------------------------------|

----------17--20-19h20h19-17-19~-------|--20--19--17-----------------------|
------17-------------------------------|--------------20--18--17-----------|
--17-----------------------------------|--------------------------19~------|
---------------------------------------|-----------------------------------|
---------------------------------------|-----------------------------------|
---------------------------------------|-----------------------------------|

--------17----------------------------------|
-----17----17----------------------17h20h17-|
--19----------19r--17h19-------19b----------|
--------------------------------------------|
--------------------------------------------|
--------------------------------------------|

---------------------------17h20h17----------------|
-----17h20h17-----17h20h17----------17-20b---20b---|
--19b---------19b----------------------------------|
---------------------------------------------------|
---------------------------------------------------|
---------------------------------------------------|

Adrians Solo
-------------------------------|---------------------------------------|
-------------------------------|----------------------8---------8-10---|
-------------------------------|--7---------9------7-----9--10---------|
--7--------7--9--10--7--9--10--|-----9--10-----10----------------------|
-------------------------------|---------------------------------------|
-------------------------------|---------------------------------------|

-------5h8h5-----------5----------------|----------------------------------|
----8b-------5h8h5---5---8h5------------|-----------------8----------------|
-------------------7b--------7h5---5h7--|------7-9-10-9-7---9-10-----------|
---------------------------------7------|----7-------------------10-9-10---|
----------------------------------------|----------------------------------|
----------------------------------------|----------------------------------|

--12h17h12----------12h17h12----------12h17h12----------12h17h12-------|
-----------13----13----------13----13----------13----13----------------|
--------------14----------------14----------------14-------------14-14-|
-----------------------------------------------------------------------|
-----------------------------------------------------------------------|
-----------------------------------------------------------------------|

-------------------------------------|
-------------------------------------|
------14-12-10----12----10----9------|
---------------14----14----12--------|
--------------------------------12---|
-------------------------------------|

--------------------------------12-------12-13----|
-----12-13----12-13-15-12-13-15----13-15-------15-|
--14-------14-------------------------------------|
--------------------------------------------------|
--------------------------------------------------|
--------------------------------------------------|


--------------------------17------17--19b---|
--17--18--20--17--18--20------20------------|
--------------------------------------------|
--------------------------------------------|
--------------------------------------------|
--------------------------------------------|

Janicks Solo
---------------------------------|
---------------------------------|
--7b---------7-5-4h5-4h5-4h5-4h5-|
---------------------------------|
---------------------------------|
---------------------------------|

-----------------------------------------------|
-----------------------------------------------|
--4h5h4h5h4h5h4h5-4h5h4h5-5h7h5h7h7------------|
--------------------------------------7h5------|
------------------------------------------7----|
-----------------------------------------------|

-------------------------------------------|
--15b----15-13-12-13-15h13h12-13-15--13----|
----------------------------------------14-|
-------------------------------------------|
-------------------------------------------|
-------------------------------------------|

-----------12------------------------------|
--12-13-15-----15-13-12-15-13h12-----------|
---------------------------------14-12-----|
-------------------------------------------|
-------------------------------------------|
-------------------------------------------|

---------------------------17-------17-19-20-22-|
------17----17-18-17-18-20----18-20-------------|
--19b----19-------------------------------------|
------------------------------------------------|
------------------------------------------------|
------------------------------------------------|

---20-19-17----17--------------17--------|
------------17----17-20b----17----17-20--|b
-----------------------------------------|
-----------------------------------------|
-----------------------------------------|
-----------------------------------------|

----------------------------------------------------------------|
----------------------------------------------------------------|
----19h17-12h14h12h14h12h14-------------------------------------|
----------------------------12h14h12h14h12h14-10h12h10h12-------|
----------------------------------------------------------12/---|
----------------------------------------------------------------|


------------------------------------------------------------------------------|
--17h20h17----17h20h17----17h20h17----17h20h17----17h20h17----17h20h17--20~---|
-----------19----------19----------19----------19----------19---------19------|
------------------------------------------------------------------------------|
------------------------------------------------------------------------------|
------------------------------------------------------------------------------|

Pre Chorus
X2
E-------------------------------------------------------------------|
B-------------------------------------------------------------------|
G-------------7---7---7---5---5---5---------------------------------|
D-7---7---7---7---7---7---5---5---5---5---5---5---------------------|
A-7---7---7---5-5-5-5-5---3-3-3-3-3---5---5---5---------------------|
E-5-5-5-5-5---------------------------3-3-3-3-3---------------------|


Chorus
E-----------------------------------------------------------------------|
B-----------------------------------------------------------------------|
G-----------------------------------------------------------------------|
D--7-7-7-7-7--7-7-7-7-7---3-3-3-3-3--3-3-3-3-3---3-3-3-3-3--3-3-3-3-3---|
A--7-7-7-7-7--7-7-7-7-7---3-3-3-3-3--3-3-3-3-3---3-3-3-3-3--3-3-3-3-3---|
E--5-5-5-5-5--5-5-5-5-5---1-1-1-1-1--1-1-1-1-1---5-5-5-5-5--5-5-5-5-5---|

E-------------------------|
B-------------------------|
G-7-7-7-7-7--7-7-7-7-7----|
D-7-7-7-7-7--7-7-7-7-7----|
A-5-5-5-5-5--5-5-5-5-5----|
E-------------------------|


Outro

E-------------------------------------------------------------------------|
B-----------------------------------6-8-6---------------------------------|
G--9-7-9--7-9-7-9-9--7-9-7-9-9--7-9-------9-7-9--7------------------------|
D-7------------------------------------------------10-10-9-10-9-10-10-9-10|
A-------------------------------------------------------------------------|
E-------------------------------------------------------------------------|


E---------------------------------------------|
B---------------------------------------------|
G-------------------7-------------------------|
A-9-7-7—-5-7-5-7--5---------------------------|
D---------------------------------------------|
E---------------------------------------------|

E-------------------------------------------------------------------------|
B-----------------------------------6-8-6---------------------------------|
G--9-7-9--7-9-7-9-9--7-9-7-9-9--7-9-------9-7-9--7------------------------|
D-7------------------------------------------------10-10-9-10-9-10-10-9-10|
A-------------------------------------------------------------------------|
E-------------------------------------------------------------------------|

E---------------------------------------------|
B---------------------------------------------|
G-------------------7-------------------------|
A-9-7-7—-5-7-5-7--5---------------------------|
D---------------------------------------------|
E---------------------------------------------|


X2
E----------------------------------------------------------|
B----------------------------------------------------------|
G---9-9-9-9-7-9---9-9-9-9-10-9-7-9------9-9-9-9-10-9-10-9--|
D----------------------------------------------------------|
A----------------------------------------------------------|
E----------------------------------------------------------|
Song info
No More Lies
Iron Maiden
2001
  • Rock
  • Heavy Metal
Alternative tracks
Similar songs
Dissident Aggressor - Judas Priest
Redneck - Lamb of God
Afterlife - Avenged Sevenfold
Monkey Business - Skid Row
Rock Rock Til You Drop - Def Leppard

Hi! Hope you enjoy backing track experience.
If you want to help us in the development of the project, feel free to donate!