Moby Dick - Led Zeppelin
00:00 / 00:00
Tabs and lyrics
Tunning: Drop D (D A D G B E)
Moby Dick
Jon Bonham, Jimmy Page, John Paul Jones

Note: Sixth string = D (one full step down)


E|----------------------------------|----------------------------------|
B|----------------------------------|----------------------------------|
G|----------------------------------|----------------------------------|
D|----------------------------------|----------------------------------|
A|-----5---5p3----------------------|-----5---5p3----------------------|
D|-0-----------5-3-----5-3-----5---3|-0-----------5-3-----5-3-----5---3|

E|----------------------------------|----------------------------------|
B|----------------------------------|----------------------------------|
G|----------------------------------|----------------------------------|
D|----------------------------------|----------------------------------|
A|-----5---5p3----------------------|-----5---5p3----------------------|
D|-0-----------5-3-----5-3-----5---3|-0-----------5-3-----5-3-----5---3|

E|--------------------------------|--------------------------------|
B|--------------------------------|--------------------------------|
G|--------------------------------|--------------------------------|
D|-----5---5p3--------------------|-----5---5p3--------------------|
A|-------------5-1-----3---1-3---1|-------------5-1-----3---1-3---1|
D|-5------------------------------|-5------------------------------|

E|----------------------------------|----------------------------------|
B|----------------------------------|----------------------------------|
G|----------------------------------|----------------------------------|
D|----------------------------------|----------------------------------|
A|-----5---5p3----------------------|-----5---5p3----------------------|
D|-0-----------5-3-----5-3-----5---3|-0-----------5-3-----5-3-----5---3|

E|--------------------------------|-------------------------------------|
B|--------------------------------|-------------------------------------|
G|--------------------------------|-----------------5b(7)-----5-2-------|
D|-----7---7p5---7---7-----5---7-0|-5-5-5-5-5-3-------------------5-3---|
A|-------------7---------7--------|-------------5-----------------------|
D|-7------------------------------|-------------------------------------|

E|----------------------------------|----------------------------------|
B|----------------------------------|----------------------------------|
G|----------------------------------|----------------------------------|
D|----------------------------------|----------------------------------|
A|-----5---5p3----------------------|-----5---5p3----------------------|
D|-0-----------5-3-----5-3-----5---3|-0-----------5-3-----5-3-----5---3|

E|----------------------------------|
B|----------------------------------|
G|----------------------------------|
D|----------------------------------|
A|-----5---5p3----------------------|
D|-0-----------5-3-----5-3-----5---3|

E|-----------10-------------------------------------------------|
B|--------10-10----------------------------------------12-10---\|
G|-12b(14)--------12b(14)r12-10----12-10---------------12-10---\|
D|------------------------------12-------12---12-10-12----------|
A|--------------------------------------------------------------|
D|--------------------------------------------------------------|

E|----------------------------------|
B|----------------------------------|
G|----------------------------------|
D|----------------------------------|
A|-----5---5p3----------------------|
D|-0-----------5-3-----5-3-----5---3|

Hold Bend...........................................
E|----------------------------------------------------13b(15)-----x-------13b(15)-x-------|
B|-13b(15)-13b(15)---13b(15r13-13b(15)-13b(15)-13b(15)--------------x---------------x-----|
G|--------------------------------------------------------------------x---------------x---|
D|----------------------------------------------------------------------------------------|
A|----------------------------------------------------------------------------------------|
D|----------------------------------------------------------------------------------------|

E|-------------------------------3p1|
B|----------------------------------|
G|----------------------------------|
D|-----5---5p3----------------------|
A|-------------5-1-----3-1---3------|
D|-5--------------------------------|

E|-p0-------------------3-1-0------------------------|
B|----3p1p0-------------------3p1p0------------------|
G|----------4p2p0-------------------4p2p0------------|
D|----------------3p2p0-------------------3p2p0------|
A|----------------------------------------------3p2p0|
D|---------------------------------------------------|

E|----------------------------------|
B|----------------------------------|
G|----------------------------------|
D|----------------------------------|
A|-----5---5p3----------------------|
D|-0-----------5-3-----5-3-----5---3|

E|----------------------------------10---------------------------|
B|----------------------------10-12----13b(15)---13b(15)---------|
G|----------------7-7-7---/11------------------------------------|
D|------------7-9------------------------------------------------|
A|-5-5-5---/9----------------------------------------------------|
D|---------------------------------------------------------------|

E|--------------------------------|-------------------------------------|
B|--------------------------------|-------------------------------------|
G|--------------------------------|-----------------5b(7)-----5-2-------|
D|-----7---7p5---7---7-----5---7-0|-5-5-5-5-5-3-------------------5-3---|
A|-------------7---------7--------|-------------5-----------------------|
D|-7------------------------------|-------------------------------------|

E|-------|
B|-3-----|
G|-2-----|
D|-0-----|
A|-------|
D|-------|

(Drum Solo)

On cue...

E|----------------------------------|-------|
B|----------------------------------|-------|
G|----------------------------------|-------|
D|----------------------------------|-------|
A|-----5---5p3----------------------|-------|
D|-0-----------5-3-----5-3-----5---3|-0-----|

E|----------------------------------|-------|
B|----------------------------------|-------|
G|----------------------------------|-------|
D|----------------------------------|-------|
A|-----5---5p3----------------------|-------|
D|-0-----------5-3-----5-3-----5---3|-5-----|

E|--------------------------------|-------------------------------------|
B|--------------------------------|-------------------------------------|
G|--------------------------------|-----------------5b(7)-----5-2-------|
D|-----7---7p5---7---7-----5---7-0|-5-5-5-5-5-3-------------------5-3---|
A|-------------7---------7--------|-------------5-----------------------|
D|-7------------------------------|-------------------------------------|

E|-------------|-------|
B|-7-----5-----|-2-----|
G|-7-----5-----|-2-----|
D|-7-----5-----|-2-----|
A|-5-----3-----|-0-----|
D|-------------|-------|



************************************

| x Dead note
| p Pull-off
| r Release
| / Slide up
| \ Slide down

************************************
Tunning: Standard (E A D G B e)
-----------------------------------------------------------------------------
Moby Dick - Led Zeppelin
-----------------------------------------------------------------------------
Tabbed by: Guitarzan Freak
Tuning: Standard EADGBe

Intro/Main Riff:
e|---------------------------------------------------------------------------
B|---------------------------------------------------------------------------
G|---------------------------------------------------------------------------
D|---5-5p3----------------5-5p3----------------5-5p3-------------------------
A|---------5--1-3-1-3-1---------5--1-3-1-3-1---------5--1-3-1-3-1------------
E|-3--------------------3--------------------3-------------------------------

e|----------------------|
B|----------------------|
G|----------------------|
D|---5-5p3--------------|
A|---------5--1-3-1-3-1-|
E|-3--------------------|

Riff 2:
e|---------------------------------------------|
B|---------------------------------------------|
G|---5-5p3----------------5-5p3----------------|
D|---------5--1-3-1-3-1---------5--1-3-1-3-1---|
A|-3--------------------3--------------------3-|
E|---------------------------------------------|

Riff 3:
e|--------------------------------------------------|
B|--------------------------------------------------|
G|---7-7p5---7-7---5-7--3/5-5-5-5-5p3---7b9-3---5-3-|
D|---------7-----7--------------------5-------5-----|
A|-5------------------------------------------------|
E|--------------------------------------------------|

Riff 4:
e|----------10------------------------------------------------|
B|-------10------------------------------------------12--10\--|
G|-12b14---------12b14r12-10----12-10-----------------12--10\-|
D|---------------------------12--------12~--12-10-12----------|
A|------------------------------------------------------------|
E|------------------------------------------------------------|

Riff 5: ** Rake **
e|--------------------------------------------13b15--10---13b15-10---|
B|-13b15~13b15~13b15~13b15~13b15~13b15~13b15----------10---------10--|
G|-----------------------------------------------------12---------12-|
D|-------------------------------------------------------------------|
A|-------------------------------------------------------------------|
E|-------------------------------------------------------------------|

Riff 6:
e|-3p1p0--------------------3p1p0-------------------------|
B|-------3p1p0--------------------3p1p0-------------------|
G|-------------4p2p0--------------------4p2p0-------------|
D|-------------------3p2p0--------------------3p2p0-------|
A|--------------------------------------------------3p2p0-|
E|--------------------------------------------------------|

Riff 7:
e|-----------------------------------10---------------|
B|----------------------------10-12-----13b15--13b15~-|
G|-----------------7-7-7-9/11-------------------------|
D|-----------7-9--------------------------------------|
A|-5-5-5-7/9------------------------------------------|
E|----------------------------------------------------|

Chords:
D5 chord (xx023x), D (x5777x), C (x3555x), A (x0222x)

D5 D C A
e|---|---|---|---|
B|-3-|-7-|-5-|-2-|
G|-2-|-7-|-5-|-2-|
D|-0-|-7-|-5-|-2-|
A|---|-5-|-3-|-0-|
E|---|---|---|---|

Riff/Chord Progression:

Main Riff:x4
Riff 2:x2
Main Riff:x2
Riff 3:x1
Main Riff:x3
Riff 4:x1
Main Riff:x1
Riff 5:x1
Riff 2:x1
Riff 6:x1
Main Riff:x1
Riff 7:x1
Riff 3:x1
D5 Chord:x1

Drum Solo

Main Riff:x1
Riff 2:x1
Riff 3:x1
D Chord:x1
C Chord:x1
A Chord:x1

Key:
| \ slide down
| h hammer-on
| p pull-off
| ~ vibrato
| + harmonic
| x Mute note
| ** Rake or play quickly

=============================================================================
Tunning: Standard (E A D G B e)
Moby Dick - Led Zeppelin, www.ultimate-guitar.com

Tabbed by: whodat

TIMING: 4/4
TUNING: Dropped D (DADGBe)

I tabbed this in the order of the song.

e|-------------------------------|
B|-------------------------------|
G|-------------------------------| X4
D|-------------------------------|
A|---5--5--3---------------------|
D|-0----------5--3~-5--3--5--3---|


e|-------------------------------|
B|-------------------------------|
G|-------------------------------| X2
D|---5--5--3--0------------------|
A|---------------1~-3--1--3--1---|
D|-5-----------------------------|


e|-------------------------------|
B|-------------------------------|
G|-------------------------------| X2
D|-------------------------------|
A|---5--5--3---------------------|
D|-0----------5--3~-5--3--5--3---|


e|--------------------------------------------------------------|
B|--------------------------------------------------------------|
G|-------------------------------------------5(b7)--5--2--------| X1
D|---7--7p5-----7--7---5--7-0-5-5-5-5-5--3---------------5--3---|
A|-----------7-------7---------------------5--------------------|
D|-7------------------------------------------------------------|


e|-------------------------------|
B|-------------------------------|
G|-------------------------------| X3
D|-------------------------------|
A|---5--5--3---------------------|
D|-0----------5--3~-5--3--5--3---|


[Solo 1]

e|-----------10----------------------------------------------------|
B|--------10------------------------------------------12--10\------|
G|-12b14---------12b14r12-10----12-10-----------------12--10\------|
D|---------------------------12--------12~--12-10-12---------------|
A|-----------------------------------------------------------------|
D|-----------------------------------------------------------------|


e|-------------------------------|
B|-------------------------------|
G|-------------------------------|
D|-------------------------------|
A|---5--5--3---------------------|
D|-0----------5--3~-5--3--5--3---|


[Solo 2]

e|----------------------------------------------------------13b15----|
B|--------13b15~13b15~13b15~13b15~13b15~13b15~13b15------------------|
G|-------------------------------------------------------------------|
D|-------------------------------------------------------------------|
A|-------------------------------------------------------------------|
D|-------------------------------------------------------------------|

e|-10----13b15----10-------------------------------------------------|
B|--10-------------10------------------------------------------------|
G|---12-------------12-----------------------------------------------|
D|-------------------------------------------------------------------|
A|-------------------------------------------------------------------|
D|-------------------------------------------------------------------|



e|-------------------------------|
B|-------------------------------|
G|-------------------------------|
D|---5--5--3--0------------------|
A|---------------1~-3--1--3--1---|
D|-5-----------------------------|


[Solo 3]

e|-3p1p0--------------------3p1p0------------------------------------|
B|-------3p1p0--------------------3p1p0------------------------------|
G|-------------4p2p0--------------------4p2p0------------------------|
D|-------------------3p2p0--------------------3p2p0------------------|
A|--------------------------------------------------3p2p0------------|
D|-------------------------------------------------------------------|


e|-------------------------------|
B|-------------------------------|
G|-------------------------------|
D|-------------------------------|
A|---5--5--3---------------------|
D|-0----------5--3~-5--3--5--3---|


[Solo 4]

e|-----------------------------------10------------------------------|
B|----------------------------10-12-----13b15--13b15~~~\-------------|
G|-----------------7-7-7-9s11----------------------------------------|
D|-----------7-9-----------------------------------------------------|
A|-5-5-5-7s9---------------------------------------------------------|
D|-------------------------------------------------------------------|


e|--------------------------------------------------------------|------|
B|--------------------------------------------------------------|-3----|
G|-------------------------------------------5(b7)--5--2--------|-2----|
D|---7--7p5-----7--7---5--7-0-5-5-5-5-5--3---------------5--3---|-0----|
A|-----------7-------7---------------------5--------------------|------|
D|-7------------------------------------------------------------|------|


[Drum Solo]

e|-------------------------------|
B|-------------------------------|
G|-------------------------------|
D|-------------------------------|
A|---5--5--3---------------------|
D|-0----------5--3~-5--3--5--3---|



e|-------------------------------|
B|-------------------------------|
G|-------------------------------|
D|---5--5--3--0------------------|
A|---------------1~-3--1--3--1---|
D|-5----------------------------5|



e|--------------------------------------------------------------|
B|--------------------------------------------------------------|
G|-------------------------------------------5(b7)--5--2--------|
D|---7--7p5-----7--7---5--7-0-5-5-5-5-5--3---------------5--3---|
A|-----------7-------7---------------------5--------------------|
D|-7------------------------------------------------------------|


[Outro]

e|-------------------------------------------------------|
B|--7-------5----------0---------------------------------|
G|--7-------5----------0---------------------------------|
D|--7-------5----------0---------------------------------|
A|--5-------3----------2---------------------------------|
D|-------------------------------------------------------|




************************************

| ~ vibrato/held note
| h hammer on
| p pull off
| s slide
| b bend string to shown fret
| r release bend to shown fret
| / slide up from infinity
| \ slide down to infinity
| + harmonic
| x muted note

************************************
Tunning: Standard (E A D G B e)
Song: Moby Dick
Atrist: Led Zeppelin


Hey! the other tabs on this site.....way off!! (total offense to the writers)

Your gonna wanna throw some distortion on.


feel free to throw some pull offs, slides, hammer on's, or whatever in this song.


e]------------------------------------------------]
B]------------------------------------------------]
G]------------------------------------------------]
D]------12---12--10-------------------------------]
A]------------------12-------8---10-8---10-8------]
E]--10--------------------------------------------]


e]------------------------------------------------]
B]------------------------------------------------]
G]------------------------------------------------]
D]------12---12--10-------------------------------]
A]------------------12-------8---10-8---10-8------]
E]--10--------------------------------------------]


e]------------------------------------------------]
B]------------------------------------------------]
G]------------------------------------------------]
D]------12---12--10-------------------------------]
A]------------------12-------8---10-8---10-8------]
E]--10--------------------------------------------]


e]------------------------------------------------]
B]------------------------------------------------]
G]------------------------------------------------]
D]------12---12--10-------------------------------]
A]------------------12-------8---10-8---10-8------]
E]--10--------------------------------------------]

(note your moving up a string here)
e]--------------------------------------------]
B]--------------------------------------------]
G]------12---12--10---------------------------]
D]------------------12-------8---10-8---10-8--]
A]--10----------------------------------------]
E]--------------------------------------------]


e]--------------------------------------------]
B]--------------------------------------------]
G]------12---12--10---------------------------]
D]------------------12-------8---10-8---10-8--]
A]--10----------------------------------------]
E]--------------------------------------------]

(moving back down)
e]------------------------------------------------]
B]------------------------------------------------]
G]------------------------------------------------]
D]------12---12--10-------------------------------]
A]------------------12-------8---10-8---10-8------]
E]--10--------------------------------------------]


e]------------------------------------------------]
B]------------------------------------------------]
G]------------------------------------------------]
D]------12---12--10-------------------------------]
A]------------------12-------8---10-8---10-8------]
E]--10--------------------------------------------]



e]----------------------------------------------------------------------]
B]----------------------------------------------------------------------]
G]------12---12-10--------12--12-------10---12----14-14-14-14-14-14--12-]
D]-----------------12-------------12------------------------------------]
A]--10------------------------------------------------------------------]
E]----------------------------------------------------------------------]


e]---------------------------]
B]--14b16--------------------]
G]-----------12p10-----------]
D]------------------12-10----]
A]---------------------------]
E]---------------------------]


e]------------------------------------------------]
B]------------------------------------------------]
G]------------------------------------------------]
D]------12---12--10-------------------------------]
A]------------------12-------8---10-8---10-8------]
E]--10--------------------------------------------]


e]------------------------------------------------]
B]------------------------------------------------]
G]------------------------------------------------]
D]------12---12--10-------------------------------]
A]------------------12-------8---10-8---10-8------]
E]--10--------------------------------------------]


e]------------------------------------------------]
B]------------------------------------------------]
G]------------------------------------------------]
D]------12---12--10-------------------------------]
A]------------------12-------8---10-8---10-8------]
E]--10--------------------------------------------]

e|-----------10----------------------------------------------------]
B|--------10------------------------------------------12--10\------]
G|-12b14---------12b14r12-10----12-10-----------------12--10\------]
D|---------------------------12--------12~--12-10-12---------------]
A|-----------------------------------------------------------------]
E|-----------------------------------------------------------------]


e]------------------------------------------------]
B]------------------------------------------------]
G]------------------------------------------------]
D]------12---12--10-------------------------------]
A]------------------12-------8---10-8---10-8------]
E]--10--------------------------------------------]


e|----------------------------------------------------------13b15----]
B|--------13b15~13b15~13b15~13b15~13b15~13b15~13b15------------------]
G|-------------------------------------------------------------------]
D|-------------------------------------------------------------------]
A|-------------------------------------------------------------------]
E|-------------------------------------------------------------------]

e|-10----13b15----10-------------------------------------------------]
B|--10-------------10------------------------------------------------]
G|---12-------------12-----------------------------------------------]
D|-------------------------------------------------------------------]
A|-------------------------------------------------------------------]
E|-------------------------------------------------------------------]


e]------------------------------------------------]
B]------------------------------------------------]
G]------------------------------------------------]
D]------12---12--10-------------------------------]
A]------------------12-------8---10-8---10-8------]
E]--10--------------------------------------------]


e|-----------------------------------10------------------------------]
B|----------------------------10-12-----13b15--13b15~\---------------]
G|-----------------7-7-7-9s11----------------------------------------]
D|-----------7-9-----------------------------------------------------]
A|-5-5-5-7s9---------------------------------------------------------]
D|-------------------------------------------------------------------]


e]----------------------------------------------------------------------]
B]----------------------------------------------------------------------]
G]------12---12-10--------12--12-------10---12----14-14-14-14-14-14--12-]
D]-----------------12-------------12------------------------------------]
A]--10------------------------------------------------------------------]
E]----------------------------------------------------------------------]


e]---------------------------]
B]--14b16--------------------]
G]-----------12p10-----------]
D]------------------12-10----]
A]---------------------------]
E]---------------------------]




THE MOST AWESOME DRUM SOLO BY THE MOST AWESOME DRUMMER (john Bonham a.k.a. Bonzo)



e]------------------------------------------------]
B]------------------------------------------------]
G]------------------------------------------------]
D]------12---12--10-------------------------------]
A]------------------12-------8---10-8---10-8-10---]
E]--10--------------------------------------------]


e]----------------------------------------------]
B]----------------------------------------------]
G]------12---12--10-----------------------------]
D]------------------12-------8---10-8---10-8-10-]
A]--10------------------------------------------]
E]----------------------------------------------]


e]----------------------------------------------------------------------]
B]----------------------------------------------------------------------]
G]------12---12-10--------12--12-------10---12----14-14-14-14-14-14--12-]
D]-----------------12-------------12------------------------------------]
A]--10------------------------------------------------------------------]
E]----------------------------------------------------------------------]


e]---------------------------]
B]--14b16--------------------]
G]-----------12p10-----------]
D]------------------12-10----]
A]---------------------------]
E]---------------------------]

hold each power chord for about 4 seconds each
e]-------------------------------------------]
B]-------------------------------------------]
G]-------------------------------------------]
D]--12-------------10------------7-----------]
A]--12-------------10------------7-----------]
E]--10-------------8-------------5-----------]



mini (but still awesome) drum solo



hold note for a while.
e]-------------------------------------------------------------]
B]-------------------------------------------------------------]
G]---2---------------------------------------------------------]
D]---2---------------------------------------------------------]
A]---0---------------------------------------------------------]
E]-------------------------------------------------------------]




well that's moby dick. hope you learn it
Song info
Moby Dick
Led Zeppelin
2001
  • Rock
  • Blues Rock
  • Hard Rock
Alternative tracks
Similar songs
Communication Breakdown - Led Zeppelin
Black Gives Way To Blue - Alice in Chains
Stairway To Heaven - Led Zeppelin
Highway Star - Deep Purple

Привет! Надеемся, что вам нравиться пользоваться этим сайтом.
Если хотите помочь разработке, то можете пожертвовать нам некоторую сумму на развитие проекта.