Burn It Down - Linkin Park
00:00 / 00:00
Tabs and lyrics
Tunning: Drop D (D A D G B E)
Cette musique est vraiment simple et fun à jouer.
This song is very simple and fun.
Drop D.

[Intro/Verse]

(8sec)

E|---------------------------------------------------------------|
B|----6-8-13------8-10------15-13-10------13-12-8----------------|
G|---------------------------------------------------------------|
D|---------------------------------------------------------------|
A|---------------------------------------------------------------|
D|---------------------------------------------------------------|(x2)

Répéter ça : à 1m27 x1 ; et à partir de 3min12 jusqu'à la fin si ça vous amuse ^^
Repeat that : 1m27 x1, and at 3min12 or play the chorus.

[Refrain/Chorus]

E|--------------------------------------------------------------------------------------------|
B|--------------------------------------------------------------------------------------------|
G|--------------------------------------------------------------------------------------------|
D|--0-0-0-0-0-0-0-2--3-3-3-3-3-3-3---7-7-7-7-7-7-7-7--9-5-5-5-5-5-5-5-------------------------|
A|--0-0-0-0-0-0-0-2--3-3-3-3-3-3-3---7-7-7-7-7-7-7-7--9-5-5-5-5-5-5-5-------------------------|
D|--0-0-0-0-0-0-0-2--3-3-3-3-3-3-3---7-7-7-7-7-7-7-7--9-5-5-5-5-5-5-5-------------------------|

Après vous avez juste à suivre le rythme amusez vous bien.
Follow the rythm, have fun.
Tunning: Standard (E A D G B e)
[Intro] (Dm F Am G)

e|-----8-----------|-----------------|-10-8-------------|-8-7-------------|
B|-------------8---|-10--------------|------10------8---|-----8-----------|
G|-7-9-------------|-----------------|------------------|-----------------| x4
D|-----------------|-----------------|------------------|-----------------|
A|-----------------|-----------------|------------------|-----------------|
E|-----------------|-----------------|------------------|-----------------|

[Verse]
Dm F Am G

[Chorus]
Dm F C G

Mike Shinoda Verse

e|-----------------------------|
B|-6-5-------------------------|
G|-------5-7-4-----------------| x2
D|-----7-----------------------|
A|-----------------------------|
E|-----------------------------|
Tunning: Standard (E A D G B e)
Linkin Park - 'Burn it Down' in Standard tuning.
Of Course it's not 100% right, but it is just my version and i hope it will be
helpful for someone.

------
Intro
------
Piano
Var.1
e|-------------|(Repeat)
B|-------------|
G|-------2-4-0-|
D|0-2-3--------|
A|-------------|
E|-------------|

Var.2
e|-------------|(Repeat)
B|-------------|
G|-------7-9-5-|
D|5-7-8--------|
A|-------------|
E|-------------|

Synth
e|----8---------------------------|(Repeat)
B|-------8-10--15-13-10--13-12-10-|
G|7-9-----------------------------|
D|--------------------------------|
A|--------------------------------|
E|--------------------------------|

Guitar
e|--------------------------------------|(Repeat)
B|--------------------------------------|
G|-777777-9-----------------------------|
D|-777777-9-33333333--777777-9-55555555-|
A|-555555-7-33333333--777777-9-55555555-|
E|----------11111111--555555-7-33333333-|

------
Verse
------
Piano
Var.1
e|-------------|(Repeat)
B|-------------|
G|-------2-4-0-|
D|0-2-3--------|
A|-------------|
E|-------------|

Var.2
e|-------------|(Repeat)
B|-------------|
G|-------7-9-5-|
D|5-7-8--------|
A|-------------|
E|-------------|

-------
Chorus
-------
Guitar
e|--------------------------------------|(Repeat)
B|--------------------------------------|
G|-777777-9-----------------------------|
D|-777777-9-33333333--777777-9-55555555-|
A|-555555-7-33333333--777777-9-55555555-|
E|----------11111111--555555-7-33333333-|

Piano
Var.1
e|-------------|(Repeat)
B|-------------|
G|-------2-4-0-|
D|0-2-3--------|
A|-------------|
E|-------------|

Var.2
e|-------------|(Repeat)
B|-------------|
G|-------7-9-5-|
D|5-7-8--------|
A|-------------|
E|-------------|

Then
Synth
e|----8---------------------------|(Repeat)
B|-------8-10--15-13-10--13-12-10-|
G|7-9-----------------------------|
D|--------------------------------|
A|--------------------------------|
E|--------------------------------|

Then
Verse
Chorus
Brige
e|-------------|(Repeat)
B|-------------|
G|-------2-4-0-|
D|0-2-3--------|
A|-------------|
E|-------------|

And outro like an intro
End.
Song info
Burn It Down
Linkin Park
2012
  • Rock
  • Alternative Rock
Alternative tracks
Similar songs
Spread Your Love - Black Rebel Motorcycle Club
Violet - Hole
Ball Of Confusion - Love and Rockets
Good God - Anouk
Planet Telex - Radiohead

Hi! Hope you enjoy backing track experience.
If you want to help us in the development of the project, feel free to donate!