Looks That Kill - Mötley Crüe
00:00 / 00:00
Tabs and lyrics
Tunning: D tuning (D G C F A D)
LOOKS THAT KILL
Motley Crue
Decade of Decadence

[Main Riff]
D|-----------------|-----------------|-----------------|-----------------|
A|-----------------|-----------------|-----------------|-----------------|
F|-----9-----9-----|-7-----7-----7\6-|-----9-----9-----|-7-----7-----7\6-|
C|-----7-----7-----|-5-----5-----5\4-|-----7-----7-----|-5-----5-----5\4-|
G|-0-0---0-0---0-0-|---0-0---0-0-----|-0-0---0-0---0-0-|---0-0---0-0-----|
D|-----------------|-----------------|-----------------|-----------------|

D|-----------------|-----------------|-----------------|-----------------|
A|-----------------|-----------------|-----------------|-----------------|
F|-----9-----9-----|-7-----7-----7\6-|-----9-----9-----|-7-----7-----7\6-|
C|-----7-----7-----|-5-----5-----5\4-|-----7-----7-----|-5-----5-----5\4-|
G|-0-0---0-0---0-0-|---0-0---0-0-----|-0-0---0-0---0-0-|---0-0---0-0-----|
D|-----------------|-----------------|-----------------|-----------------|
|
| vib.
D|-----------------|-----------------|-22b(24)~~~~~~~~~|-(24)~~~~~~~~~~~~|
A|-----------------|-----------------|-----------------|-----------------|
F|-----------------|-----------------|-----------------|-----------------|
C|-2---------------|(2)--------------|-----------------|-----------------|
G|-0---------------|(0)--------------|-----------------|-----------------|
D|-----------------|-----------------|-----------------|-----------------|


w/bar
[Before the Chorus] -.5 -.5 -.5 -.5 -.5 -.5 -.5
D|-----------------|-----------------|---------------------------------|
A|-----------------|-----------------|---\/--\/--\/--|-\/--\/--\/--\/--|
F|-----9-----9-----|-7-----7-----7\6-|-5-(5)-(5)-(5)-|-(5)-(5)-(5)-(5)-|
C|-----7-----7-----|-5-----5-----5\4-|-3-(3)-(3)-(3)-|-(3)-(3)-(3)-(3)-|
G|-0-0---0-0---0-0-|---0-0---0-0-----|---------------|-----------------|
D|-----------------|-----------------|---------------|-----------------|

[Chorus]
D|-------------|--------|-----------|-----------|-------------------|
A|-1-1--1-1----|----5-6-|-(6)---6-7-|-(7)---7-8-|-(8)-6-6-6-6-6-6---|
F|-0-0--0-0----|----5-5-|-(5)---5-5-|-(5)---5-5-|-(5)-5-5-5-5-5-5---|
C|-3-3--3-3--2-|----2-3-|-(3)---3-4-|-(4)---4-5-|-(5)-3-3-3-3-3-3-0-|
G|-------------|-0------|-----0-----|-----0-----|-------------------|
D|-------------|--------|-----------|-----------|-------------------|

D|---------|-----------|-----------|-------------------|
A|-----5-6-|-(6)---6-7-|-(7)---7-8-|-(8)-6-6-6-6-6-6---|
F|-----5-5-|-(5)---5-5-|-(5)---5-5-|-(5)-5-5-5-5-5-5---|
C|-2---2-3-|-(3)---3-4-|-(4)---4-5-|-(5)-3-3-3-3-3-3-0-|
G|---0-----|-----0-----|-----0-----|-------------------|
D|---------|-----------|-----------|-------------------|

[Bridge]
D|-----------------|---------------|-------------|
A|-10--9----13--12-|-8--7----10--9-|-6--5---8--7-|
F|-9---9--12----12-|-8--7--10----9-|-5--5--7---7-|
C|-7---6--12----9--|-5--4--10----6-|-3--2--7---4-|
G|--------10-------|-------8-------|-------5-----|
D|-----------------|---------------|-------------|

[Solo]
D|-----------------|------------------------|
A|-----------------|------------------------|
F|-7-7-7-7-7-7-7-7-|-7--7--7--7--7--7--7--7-|
C|-5-5-5-5-5-5-5-5-|-5--5--5--5--5--5--5--5-|
G|-----------------|------------------------|
D|-----------------|------------------------|
|
|
D|-----------------|------------------------|
A|-----------------|-----6-5-8-5--8(10)r8p5-|
F|-----------------|-5-4--------------------|
C|-------------6-7-|------------------------|
G|---------8-7-----|------------------------|
D|-----------------|------------------------|

D|-----------------------------------------|---5------------------------|
A|-8p5h8p5-5h8p5h8p5h8p5h8p5h8p5h8p5-8b(10)|(8)--8p5---5----------------|
F|-----------------------------------------|---------7---7-5-7(9)r(7)p5-|
C|-----------------------------------------|----------------------------|
G|-----------------------------------------|----------------------------|
D|-----------------------------------------|----------------------------|

p.h. p.h. p.h. p.h.
D|------------------------------|-----------|------------------|
A|------------------------------|-----------|------------------|
F|-7(9)r(7)p5-7(9)r(7)p5--------|-----------|-8-7-8-7-5---7b(9)|
C|-----------------------7------|-----------|-----------7------|
G|-------------------------5b(7)|(5)-5--5p4-|------------------|
D|------------------------------|-----------|------------------|

D|------------------------------|-----------------------|-------------|----|
A|------------------------------|-----------------------|-6-----------|(6)-|
F|----------9---------9---------|-7--------7--------7\6-|-5-----------|(5)-|
C|----------7---------7---------|-5--------5--------5\4-|-3-----------|(3)-|
G|---0---0-----0---0-----0---0--|----0--0-----0--0------|-------------|----|
D|------------------------------|-----------------------|-------------|----|
|
|
D|----5-------------------------|-----------------------|-------------|----|
A|------8p5---5-----------------|-----------------------|-------------|----|
F|(7)-------7---8-7-5-7-7-5-----|-----------------------|-------------|----|
C|--------------------------7-5-|-5---------------------|-------------|----|
G|------------------------------|---7-6-5\3---------5---|gradual-bend-|----|
C|------------------------------|-----------5p3-5-5---5-|-5b(8)-------|(5)-|

LOOKS THAT KILL
Motley Crue
Decade of Decadence

[Main Riff]
D|-----------------|-----------------|-----------------|-----------------|
A|-----------------|-----------------|-----------------|-----------------|
F|-----9-----9-----|-7-----7-----7\6-|-----9-----9-----|-7-----7-----7\6-|
C|-----7-----7-----|-5-----5-----5\4-|-----7-----7-----|-5-----5-----5\4-|
G|-0-0---0-0---0-0-|---0-0---0-0-----|-0-0---0-0---0-0-|---0-0---0-0-----|
D|-----------------|-----------------|-----------------|-----------------|

D|-----------------|-----------------|-----------------|-----------------|
A|-----------------|-----------------|-----------------|-----------------|
F|-----9-----9-----|-7-----7-----7\6-|-----9-----9-----|-7-----7-----7\6-|
C|-----7-----7-----|-5-----5-----5\4-|-----7-----7-----|-5-----5-----5\4-|
G|-0-0---0-0---0-0-|---0-0---0-0-----|-0-0---0-0---0-0-|---0-0---0-0-----|
D|-----------------|-----------------|-----------------|-----------------|
|
| vib.
D|-----------------|-----------------|-22b(24)~~~~~~~~~|-(24)~~~~~~~~~~~~|
A|-----------------|-----------------|-----------------|-----------------|
F|-----------------|-----------------|-----------------|-----------------|
C|-2---------------|(2)--------------|-----------------|-----------------|
G|-0---------------|(0)--------------|-----------------|-----------------|
D|-----------------|-----------------|-----------------|-----------------|

w/bar
[Before the Chorus] -.5 -.5 -.5 -.5 -.5 -.5 -.5
D|-----------------|-----------------|---------------------------------|
A|-----------------|-----------------|---\/--\/--\/--|-\/--\/--\/--\/--|
F|-----9-----9-----|-7-----7-----7\6-|-5-(5)-(5)-(5)-|-(5)-(5)-(5)-(5)-|
C|-----7-----7-----|-5-----5-----5\4-|-3-(3)-(3)-(3)-|-(3)-(3)-(3)-(3)-|
G|-0-0---0-0---0-0-|---0-0---0-0-----|---------------|-----------------|
D|-----------------|-----------------|---------------|-----------------|

[Chorus]
D|-------------|--------|-----------|-----------|-------------------|
A|-1-1--1-1----|----5-6-|-(6)---6-7-|-(7)---7-8-|-(8)-6-6-6-6-6-6---|
F|-0-0--0-0----|----5-5-|-(5)---5-5-|-(5)---5-5-|-(5)-5-5-5-5-5-5---|
C|-3-3--3-3--2-|----2-3-|-(3)---3-4-|-(4)---4-5-|-(5)-3-3-3-3-3-3-0-|
G|-------------|-0------|-----0-----|-----0-----|-------------------|
D|-------------|--------|-----------|-----------|-------------------|

D|---------|-----------|-----------|-------------------|
A|-----5-6-|-(6)---6-7-|-(7)---7-8-|-(8)-6-6-6-6-6-6---|
F|-----5-5-|-(5)---5-5-|-(5)---5-5-|-(5)-5-5-5-5-5-5---|
C|-2---2-3-|-(3)---3-4-|-(4)---4-5-|-(5)-3-3-3-3-3-3-0-|
G|---0-----|-----0-----|-----0-----|-------------------|
D|---------|-----------|-----------|-------------------|

[Bridge]
D|-----------------|---------------|-------------|
A|-10--9----13--12-|-8--7----10--9-|-6--5---8--7-|
F|-9---9--12----12-|-8--7--10----9-|-5--5--7---7-|
C|-7---6--12----9--|-5--4--10----6-|-3--2--7---4-|
G|--------10-------|-------8-------|-------5-----|
D|-----------------|---------------|-------------|

[Solo]
D|-----------------|------------------------|
A|-----------------|------------------------|
F|-7-7-7-7-7-7-7-7-|-7--7--7--7--7--7--7--7-|
C|-5-5-5-5-5-5-5-5-|-5--5--5--5--5--5--5--5-|
G|-----------------|------------------------|
D|-----------------|------------------------|
|
|
D|-----------------|------------------------|
A|-----------------|-----6-5-8-5--8(10)r8p5-|
F|-----------------|-5-4--------------------|
C|-------------6-7-|------------------------|
G|---------8-7-----|------------------------|
D|-----------------|------------------------|

D|-----------------------------------------|---5------------------------|
A|-8p5h8p5-5h8p5h8p5h8p5h8p5h8p5h8p5-8b(10)|(8)--8p5---5----------------|
F|-----------------------------------------|---------7---7-5-7(9)r(7)p5-|
C|-----------------------------------------|----------------------------|
G|-----------------------------------------|----------------------------|
D|-----------------------------------------|----------------------------|

p.h. p.h. p.h. p.h.
D|------------------------------|-----------|------------------|
A|------------------------------|-----------|------------------|
F|-7(9)r(7)p5-7(9)r(7)p5--------|-----------|-8-7-8-7-5---7b(9)|
C|-----------------------7------|-----------|-----------7------|
G|-------------------------5b(7)|(5)-5--5p4-|------------------|
D|------------------------------|-----------|------------------|

D|------------------------------|-----------------------|-------------|----|
A|------------------------------|-----------------------|-6-----------|(6)-|
F|----------9---------9---------|-7--------7--------7\6-|-5-----------|(5)-|
C|----------7---------7---------|-5--------5--------5\4-|-3-----------|(3)-|
G|---0---0-----0---0-----0---0--|----0--0-----0--0------|-------------|----|
D|------------------------------|-----------------------|-------------|----|
|
|
D|----5-------------------------|-----------------------|-------------|----|
A|------8p5---5-----------------|-----------------------|-------------|----|
F|(7)-------7---8-7-5-7-7-5-----|-----------------------|-------------|----|
C|--------------------------7-5-|-5---------------------|-------------|----|
G|------------------------------|---7-6-5\3---------5---|gradual-bend-|----|
C|------------------------------|-----------5p3-5-5---5-|-5b(8)-------|(5)-|


************************************

| (n) Ghost note
| h Hammer-on
| p Pull-off
| \ Slide down
| r Relase

************************************
Tunning: D tuning (D G C F A D)
-------------------------------------------------------------------------------
"Looks That Kill" --- Motley Crue
-------------------------------------------------------------------------------

Tabbed by: [travis]


No one seems to have tabbed this song out right. So here
is a final correct version of "Looks That Kill." It's a
pretty easy song, like all Motley Crue songs, same goes for
the solo in this song.

Tuning: Down 1 step (D G C F A D) All guitars

Key:
... = palm mute
b = bend
/ = slide up
\ = slide down
.25 = quarter step bend
.5 = half step bend
1 = one hole step bend
.75 = three quarter step bend
~ = ring out or vibrato
h = hammer on
p = pull off
* = pinch harmonic
2h/4 = one phrase with one pick
w = wammy bar
x = muted string
[ ] = steps on wammy bar
- = how much steps to push down on wammy bar
( ) = note barely heard, or bring bent note back to normal


Intro:
Guitar 1: Play this four times.
D|----------------------------------------------------|
A|----------------------------------------------------|
F|-------2---------2---------7---------7---------7p\6-|
C|-------2---------2---------5---------5---------5p\4-|
G|-0--0------0--0------0--0------0--0------0--0-------|
D|----------------------------------------------------|
.... .... .... .... ....

Guitar 2: Play this once during the first riff above ^^:
D|----------------------|
A|--------5-------------|
F|--------2-------------|
C|--------2-------------|
G|--------0-------------|
D|----------------------|


+++++++++++++++++++++++++++++++++++++++++++++++
Guitar 2: Play this part during the third time of playing the riff above ^^:
.5 1
D|-22--(22)b---(22)b---(22)~~~~~~~~~~~~~-|
A|---------------------------------------|
F|---------------------------------------|
C|---------------------------------------|
G|---------------------------------------|
D|---------------------------------------|

+++++++++++++++++++++++++++++++++++++++++++++++
Guitar 1: Play this part 7 times in all.
D|----------------------------------------------------|
A|----------------------------------------------------|
F|-------2---------2---------7---------7---------7p\6-|
C|-------2---------2---------5---------5---------5p\4-|
G|-0--0------0--0------0--0------0--0------0--0-------|
D|----------------------------------------------------|
.... .... .... .... ....

++++++++++++++++++++++++++++++++++++++++++++++
Guitar 1: push the wammy bar down a half step while holding down notes. Listen to the song.
also hold the 5th fret on the F string while moving the wammy bar.
"well, you might not make it back..."
D|-------------------------------------------------------------|
A|-------------------------------------------------------------|
F|--5w---------------------------------------------------------|
C|--3w-[-.5]---[-.5]---[-.5]---[-.5]---[-.5]---[-.5]---[-.5]---|
G|-------------------------------------------------------------|
D|-------------------------------------------------------------|

++++++++++++++++++++++++++++++++++++++++++++++
Guitar 1:
D|-----1----1-------1----1---|
A|-----1----1-------1----1---|
F|-x---0----0-------0----0---|
C|-x---3----3-------3----3---|
G|---------------------------|
D|---------------------------|

++++++++++++++++++++++++++++++++++++++++++++++
Guitar 1:
D|------------------------------------------------------------------------|
A|-------------------------------------------------------6--6--6--6--6--6-|
F|-----------5-----5---------5-----5---------5-----5-----5--5--5--5--5--5-|
C|-2---------2--0--3---------3--0--4---------4--0--5-----3--3--3--3--3--3-|
G|-------0---------------0---------------0--------------------------------|
D|------------------------------------------------------------------------|

++++++++++++++++++++++++++++++++++++++++++++++
Guitar 1:
D|------------------------------------------------------------------------------|
A|----------------------------------------------------------6--6--6--6--6--6----|
F|-0------------5-----5---------5-----5---------5-----5-----5--5--5--5--5--5--0-|
C|-0----2-------2--0--3---------3--0--4---------4--0--5-----3--3--3--3--3--3--0-|
G|----------0---------------0---------------0-----------------------------------|
D|------------------------------------------------------------------------------|

++++++++++++++++++++++++++++++++++++++++++++++
Chorus:
Guitar 1: Play this twice.
D|----------------------------------------------------|
A|----------------------------------------------------|
F|-------2---------2---------7---------7---------7p\6-|
C|-------2---------2---------5---------5---------5p\4-|
G|-0--0------0--0------0--0------0--0------0--0-------|
D|----------------------------------------------------|
.... .... .... .... ....

++++++++++++++++++++++++++++++++++++++++++++++
Guitar 1: Play this part 7 times in all.
"Now she's bullet proof, she keeps her motor clean..."
D|----------------------------------------------------|
A|----------------------------------------------------|
F|-------2---------2---------7---------7---------7p\6-|
C|-------2---------2---------5---------5---------5p\4-|
G|-0--0------0--0------0--0------0--0------0--0-------|
D|----------------------------------------------------|
.... .... .... .... ....
++++++++++++++++++++++++++++++++++++++++++++++
Guitar 1: Same as the last time.
D|-------------------------------------------------------------|
A|-------------------------------------------------------------|
F|--5w---------------------------------------------------------|
C|--3w-[-.5]---[-.5]---[-.5]---[-.5]---[-.5]---[-.5]---[-.5]---|
G|-------------------------------------------------------------|
D|-------------------------------------------------------------|

++++++++++++++++++++++++++++++++++++++++++++++
Guitar 1:
D|-----1----1-------1----1---|
A|-----1----1-------1----1---|
F|-x---0----0-------0----0---|
C|-x---3----3-------3----3---|
G|---------------------------|
D|---------------------------|

++++++++++++++++++++++++++++++++++++++++++++++
Guitar 1:
D|------------------------------------------------------------------------|
A|-------------------------------------------------------6--6--6--6--6--6-|
F|-----------5-----5---------5-----5---------5-----5-----5--5--5--5--5--5-|
C|-2---------2--0--3---------3--0--4---------4--0--5-----3--3--3--3--3--3-|
G|-------0---------------0---------------0--------------------------------|
D|------------------------------------------------------------------------|

++++++++++++++++++++++++++++++++++++++++++++++
Guitar 1:
D|------------------------------------------------------------------------------|
A|----------------------------------------------------------6--6--6--6--6--6----|
F|-0------------5-----5---------5-----5---------5-----5-----5--5--5--5--5--5--0-|
C|-0----2-------2--0--3---------3--0--4---------4--0--5-----3--3--3--3--3--3--0-|
G|----------0---------------0---------------0-----------------------------------|
D|------------------------------------------------------------------------------|

+++++++++++++++++++++++++++++++++++++++++++++++
Chorus 2:
Guitar 1: Play this once.
D|----------------------------------------------------|
A|----------------------------------------------------|
F|-------2---------2---------7---------7---------7p\6-|
C|-------2---------2---------5---------5---------5p\4-|
G|-0--0------0--0------0--0------0--0------0--0-------|
D|----------------------------------------------------|
.... .... .... .... ....

+++++++++++++++++++++++++++++++++++++++++++++++
Guitar 1:
D|-----------------------------------------------------|
A|-----------------------------------------------------|
F|-------2---------2---------7---------7---------7--7--|
C|-------2---------2---------5---------5---------5--5--|
G|-0--0------0--0------0--0------0--0------0--0--------|
D|-----------------------------------------------------|
.... .... .... .... ....

+++++++++++++++++++++++++++++++++++++++++++++++
Cool little riff:
Guitar 1:
D|------------------------------------------------------------------------------------------|
A|-----------------13--------------------------------10---9--------------------------8----7-|
F|-14---------12---12---12---12-12---12----------9----9---9----9--9--10----------5---7----7-|
C|-14---14----12---12---12---12-12---12----12---11---10---9----9-----10----10----5---5----7-|
G|-12---11----10--------10-----------10-----9-------------------------8-----7----5----------|
D|------------------------------------------------------------------------------------------|

+++++++++++++++++++++++++++++++++++++++++++++++
Guitar 1:
D|------------------------------------------------------------------------|
A|------------------------------------------------------------------------|
F|-------2---------2---------7---------7---------7p\6---------2---------2-|
C|-------2---------2---------5---------5---------5p\4---------2---------2-|
G|-0--0------0--0------0--0------0--0------0--0---------0--0------0--0----|
D|------------------------------------------------------------------------|
.... .... .... .... .... .... ....
+++++++++++++++++++++++++++++++++++++++++++++++
Guitar Solo:
Guitar 1:
D|------------------------------------------------|
A|------------------------------------------------|
F|-7--7--7--7--7--7--7--7--7--7--7--7--7--7--7--7-|
C|-5--5--5--5--5--5--5--5--5--5--5--5--5--5--5--5-|
G|------------------------------------------------|
D|------------------------------------------------|
..............................................

Guitar 2:
1
D|--------------------------------------------------------|
A|-------------------------------6--5--8---5--8b----(8)p5-|
F|-------------------2--1--5--4---------------------------|
C|-------------3--2---------------------------------------|
G|--------------------------------------------------------|
D|-3--3--3--3---------------------------------------------|
..........

+++++++++++++++++++++++++++++++++++++++++++++++++
Guitar 1: Play this part 4 times over the solo:
D|----------------------------------------------------|
A|----------------------------------------------------|
F|-------2---------2---------7---------7---------7p\6-|
C|-------2---------2---------5---------5---------5p\4-|
G|-0--0------0--0------0--0------0--0------0--0-------|
D|----------------------------------------------------|
.... .... .... .... ....

Guitar 2:
1 1
D|--------------------------------------------------5--------------------------------|
A|-8p5h8p5---5---8p5h8p5-----8p5-8p5----5h8p5--8b-----8p5---5--5--5--5---------------|
F|---------9-------------9-----------8--------------------8------------7b------(7)p5-|
C|-----------------------------------------------------------------------------------|
G|-----------------------------------------------------------------------------------|
D|-----------------------------------------------------------------------------------|

++++++++++++++++++++++++++++++++++++++++++++++++++
Guitar 2:
1 1 1 1 1
D|---------------------------------------------------------------------------------|
A|---------------------------------------------------------------------------------|
F|-7*b---(7)p5--7b---(7)p5--------------------------------------8--7--8--7p5-------|
C|-------------------------7~~~b----(7)\-------------------------------------7~~~~~|
G|---------------------------------------5b~~~~--5b-------(5)----------------------|
D|---------------------------------------------------------------------------------|

++++++++++++++++++++++++++++++++++++++++++++++++++
Guitar 2: Let the pinch harmonic on the 7th fret ring out as your bending it up and down.
.5 .5 .5 .5
D|----------------------------------------5---------------------------|
A|--------------------------------------5---8p5---5-------------------|
F|-7*b----(7)b-----(7)b~~~~~~----7b-------------8---8-7--5-7-7-5------|
C|----------------------------------------------------------------7p5-|
G|--------------------------------------------------------------------|
D|--------------------------------------------------------------------|

++++++++++++++++++++++++++++++++++++++++++++++++++
Guitar 2:
1.5
D|----------------------------------|
A|----------------------------------|
F|----------------------------------|
C|-5--------------------------------|
G|----7-6-5-3--5--3~~-0-0-----------|
D|-------------------------5----5*b-|


Guitar 1: Play this after the last note of the solo.
D|--------|
A|--------|
F|-5~~~~--|
C|-3~~~~--|
G|--------|
D|--------|

+++++++++++++++++++++++++++++++++++++++++++++++++++
Guitar 1: Play this part 7 times
"Yeah! Now listen up..."
D|----------------------------------------------------|
A|----------------------------------------------------|
F|-------2---------2---------7---------7---------7p\6-|
C|-------2---------2---------5---------5---------5p\4-|
G|-0--0------0--0------0--0------0--0------0--0-------|
D|----------------------------------------------------|
.... .... .... .... ....

+++++++++++++++++++++++++++++++++++++++++++++++++++
Guitar 1: Same as the other times.
D|-------------------------------------------------------------|
A|-------------------------------------------------------------|
F|--5w---------------------------------------------------------|
C|--3w-[-.5]---[-.5]---[-.5]---[-.5]---[-.5]---[-.5]---[-.5]---|
G|-------------------------------------------------------------|
D|-------------------------------------------------------------|

++++++++++++++++++++++++++++++++++++++++++++++++++++
Guitar 1:
D|-----1----1-------1----1---|
A|-----1----1-------1----1---|
F|-x---0----0-------0----0---|
C|-x---3----3-------3----3---|
G|---------------------------|
D|---------------------------|

++++++++++++++++++++++++++++++++++++++++++++++++++++
Guitar 1:
D|------------------------------------------------------------------------|
A|-------------------------------------------------------6--6--6--6--6--6-|
F|-----------5-----5---------5-----5---------5-----5-----5--5--5--5--5--5-|
C|-2---------2--0--3---------3--0--4---------4--0--5-----3--3--3--3--3--3-|
G|-------0---------------0---------------0--------------------------------|
D|------------------------------------------------------------------------|

++++++++++++++++++++++++++++++++++++++++++++++++++++
Guitar 1:
D|------------------------------------------------------------------------------|
A|----------------------------------------------------------6--6--6--6--6--6----|
F|-0------------5-----5---------5-----5---------5-----5-----5--5--5--5--5--5--0-|
C|-0----2-------2--0--3---------3--0--4---------4--0--5-----3--3--3--3--3--3--0-|
G|----------0---------------0---------------0-----------------------------------|
D|------------------------------------------------------------------------------|

++++++++++++++++++++++++++++++++++++++++++++++++++++
Chorus 3:
Guitar 1: Play this part twice.
D|----------------------------------------------------|
A|----------------------------------------------------|
F|-------2---------2---------7---------7---------7p\6-|
C|-------2---------2---------5---------5---------5p\4-|
G|-0--0------0--0------0--0------0--0------0--0-------|
D|----------------------------------------------------|
.... .... .... .... ....

+++++++++++++++++++++++++++++++++++++++++++++++++++++
Guitar 1:
D|------------------------------------------------------------------------------------------|
A|-----------------13--------------------------------10---9--------------------------8----7-|
F|-14---------12---12---12---12-12---12----------9----9---9----9--9--10----------5---7----7-|
C|-14---14----12---12---12---12-12---12----12---11---10---9----9-----10----10----5---5----7-|
G|-12---11----10--------10-----------10-----9-------------------------8-----7----5----------|
D|------------------------------------------------------------------------------------------|

+++++++++++++++++++++++++++++++++++++++++++++++++++++
Guitar 1: Play this twice, and repeat until the song is done.
D|----------------------------------------------------|
A|----------------------------------------------------|
F|-------2---------2---------7---------7---------7p\6-|
C|-------2---------2---------5---------5---------5p\4-|
G|-0--0------0--0------0--0------0--0------0--0-------|
D|----------------------------------------------------|
.... .... .... .... ....

+++++++++++++++++++++++++++++++++++++++++++++++++++++
That's all. Comment and Rate it.
[travis]
Tunning: D tuning (D G C F A D)
Looks That Kill
By: Mötley Crüe
Tuning: D standard.

[Intro](first round)
[Guitar 1 only]
D|-----------------------------------|-----------------------------------|
A|------10----10----8-----8-----8\7--|------10----10----8-----8-----8\7--|
F|------9-----9-----7-----7-----7\6--|------9-----9-----7-----7-----7\6--|
C|------7-----7-----5-----5-----5\4--|------7-----7-----5-----5-----5\4--|
G|--0-0---0-0---0-0---0-0---0-0------|--0-0---0-0---0-0---0-0---0-0------|
D|-----------------------------------|-----------------------------------|
x x x x x x x x x x x x x x x x x x x x

[Intro](second round)
[Guitar 1]
D|-----------------------------------|-----------------------------------|
A|------10----10----8-----8-----8\7--|------10----10----8-----8-----8\7--|
F|------9-----9-----7-----7-----7\6--|------9-----9-----7-----7-----7\6--|
C|------7-----7-----5-----5-----5\4--|------7-----7-----5-----5-----5\4--|
G|--0-0---0-0---0-0---0-0---0-0------|--0-0---0-0---0-0---0-0---0-0------|
D|-----------------------------------|-----------------------------------|
| x x x x x x x x x x | x x x x x x x x x x
|
[Guitar 2]
D|-----------------------------------|--22b(24)~~~~~~~~~~~~~~~~~~~~~~~~--|
A|-----------------------------------|-----------------------------------|
F|--2--------------------------------|-----------------------------------|
C|--2--------------------------------|-----------------------------------|
G|--0--------------------------------|-----------------------------------|
D|-----------------------------------|-----------------------------------|
let ring. use vibrato bar
Now,
[Verse 1]
D|-----------------------------------|-----------------------------------|
A|------10----10----8-----8-----8\7--|------10----10----8-----8-----8\7--|
F|------9-----9-----7-----7-----7\6--|------9-----9-----7-----7-----7\6--|
C|------7-----7-----5-----5-----5\4--|------7-----7-----5-----5-----5\4--|
G|--0-0---0-0---0-0---0-0---0-0------|--0-0---0-0---0-0---0-0---0-0------|
D|-----------------------------------|-----------------------------------|
x x x x x x x x x x x x x x x x x x x x
listen up! She’s razor sharp. If she don’t

D|-----------------------------------|-----------------------------------|
A|------10----10----8-----8-----8\7--|------10----10----8-----8-----8\7--|
F|------9-----9-----7-----7-----7\6--|------9-----9-----7-----7-----7\6--|
C|------7-----7-----5-----5-----5\4--|------7-----7-----5-----5-----5\4--|
G|--0-0---0-0---0-0---0-0---0-0------|--0-0---0-0---0-0---0-0---0-0------|
D|-----------------------------------|-----------------------------------|
x x x x x x x x x x x x x x x x x x x x
get her way, she will slice you apart. Now she’s

D|-----------------------------------|-----------------------------------|
A|------10----10----8-----8-----8\7--|------10----10----8-----8-----8\7--|
F|------9-----9-----7-----7-----7\6--|------9-----9-----7-----7-----7\6--|
C|------7-----7-----5-----5-----5\4--|------7-----7-----5-----5-----5\4--|
G|--0-0---0-0---0-0---0-0---0-0------|--0-0---0-0---0-0---0-0---0-0------|
D|-----------------------------------|-----------------------------------|
x x x x x x x x x x x x x x x x x x x x
cool, cool black. She moves like a cat. If you don’t

D|-----------------------------------|-----------------------------------|
A|------10----10----8-----8-----8\7--|--6-v-v-v-v-v-v-v---6-6---6-6------|
F|------9-----9-----7-----7-----7\6--|--5-----------------5-5---5-5------|
C|------7-----7-----5-----5-----5\4--|--3-----------------3-3---3-3------|
G|--0-0---0-0---0-0---0-0---0-0------|-----------------------------------|
D|-----------------------------------|-----------------------------------|
x x x x x x x x x x
get her game…well, you might not make it back. She’s got the looks that

[Pre-chorus]
D|-----------------------------------|-----------------------------------|
A|-----------------------------------|----------------------6-6-6-6-6-6--|
F|--------------5---5-----------5----|--5-----------5---5---5-5-5-5-5-6--|
C|--2-----------2---3-----------3----|--4-----------4---5---3-3-3-3-3-3p0|
G|------0---------------0------------|------0----------------------------|
D|-----------------------------------|-----------------------------------|
kill. That kill. She’s got the looks that

D|-----------------------------------|-----------------------------------|
A|-----------------------------------|----------------------6-6-6-6-6-6/8|
F|--------------5---5-----------5----|--5-----------5---5---5-5-5-5-5-6/7|
C|--2-----------2---3-----------3----|--4-----------4---5---3-3-3-3-3-3/5|
G|------0---------------0------------|------0----------------------------|
D|-----------------------------------|-----------------------------------|
kill. That kill. She’s got the look…

[1st Chorus]
D|-----------------------------------|-----------------------------------|
A|------10----10----8-----8-----8\7--|------10----10----8-----8-----8\7--|
F|------9-----9-----7-----7-----7\6--|------9-----9-----7-----7-----7\6--|
C|------7-----7-----5-----5-----5\4--|------7-----7-----5-----5-----5\4--|
G|--0-0---0-0---0-0---0-0---0-0------|--0-0---0-0---0-0---0-0---0-0------|
D|-----------------------------------|-----------------------------------|
x x x x x x x x x x x x x x x x x x x x
She’s got looks that kill. She’s got looks that kill. Now she’s

[Verse 2]
D|-----------------------------------|-----------------------------------|
A|------10----10----8-----8-----8\7--|------10----10----8-----8-----8\7--|
F|------9-----9-----7-----7-----7\6--|------9-----9-----7-----7-----7\6--|
C|------7-----7-----5-----5-----5\4--|------7-----7-----5-----5-----5\4--|
G|--0-0---0-0---0-0---0-0---0-0------|--0-0---0-0---0-0---0-0---0-0------|
D|-----------------------------------|-----------------------------------|
x x x x x x x x x x x x x x x x x x x x
bullet proof. She keeps her motor clean. Ooh,

D|-----------------------------------|-----------------------------------|
A|------10----10----8-----8-----8\7--|------10----10----8-----8-----8\7--|
F|------9-----9-----7-----7-----7\6--|------9-----9-----7-----7-----7\6--|
C|------7-----7-----5-----5-----5\4--|------7-----7-----5-----5-----5\4--|
G|--0-0---0-0---0-0---0-0---0-0------|--0-0---0-0---0-0---0-0---0-0------|
D|-----------------------------------|-----------------------------------|
x x x x x x x x x x x x x x x x x x x x
and believe me, you… …she’s a number thirteen. The

D|-----------------------------------|-----------------------------------|
A|------10----10----8-----8-----8\7--|------10----10----8-----8-----8\7--|
F|------9-----9-----7-----7-----7\6--|------9-----9-----7-----7-----7\6--|
C|------7-----7-----5-----5-----5\4--|------7-----7-----5-----5-----5\4--|
G|--0-0---0-0---0-0---0-0---0-0------|--0-0---0-0---0-0---0-0---0-0------|
D|-----------------------------------|-----------------------------------|
x x x x x x x x x x x x x x x x x x x x
church strikes midnight. She’s looking louder and louder. She’s gonna

D|-----------------------------------|-----------------------------------|
A|------10----10----8-----8-----8\7--|--6-v-v-v-v-v-v-v---6-6---6-6------|
F|------9-----9-----7-----7-----7\6--|--5-----------------5-5---5-5------|
C|------7-----7-----5-----5-----5\4--|--3-----------------3-3---3-3------|
G|--0-0---0-0---0-0---0-0---0-0------|-----------------------------------|
D|-----------------------------------|-----------------------------------|
x x x x x x x x x x
turn on your juice, boy. She turns on the power. She’s got the looks that

[Pre-chorus]
D|-----------------------------------|-----------------------------------|
A|-----------------------------------|----------------------6-6-6-6-6-6--|
F|--------------5---5-----------5----|--5-----------5---5---5-5-5-5-5-6--|
C|--2-----------2---3-----------3----|--4-----------4---5---3-3-3-3-3-3p0|
G|------0---------------0------------|------0----------------------------|
D|-----------------------------------|-----------------------------------|
kill. That kill. She’s got the looks that

D|-----------------------------------|-----------------------------------|
A|-----------------------------------|----------------------6-6-6-6-6-6/8|
F|--------------5---5-----------5----|--5-----------5---5---5-5-5-5-5-6/7|
C|--2-----------2---3-----------3----|--4-----------4---5---3-3-3-3-3-3/5|
G|------0---------------0------------|------0----------------------------|
D|-----------------------------------|-----------------------------------|
kill. That kill. She’s got the look…

[2nd Chorus]
D|-----------------------------------|-----------------------------------|
A|------10----10----8-----8-----8\7--|------10----10----8-----8-----8\7--|
F|------9-----9-----7-----7-----7\6--|------9-----9-----7-----7-----7\6--|
C|------7-----7-----5-----5-----5\4--|------7-----7-----5-----5-----5\4--|
G|--0-0---0-0---0-0---0-0---0-0------|--0-0---0-0---0-0---0-0---0-0------|
D|-----------------------------------|-----------------------------------|
x x x x x x x x x x x x x x x x x x x x
She’s got looks that kill. She’s got looks that kill.

[Mid-chorus break](3 bars of 2/4)
D|------------------|-----------------|-----------------|
A|---------x-13p12--|---------x-10p9--|---------x--8p7--|
F|---------x-12-----|---------x--9----|---------x--7----|
C|--14-14--x--------|--12-12--x-------|--10-10--x-------|
G|--12-11-----------|--10--9----------|---8--7----------|
D|------------------|-----------------|-----------------|

[Chorus continued]
D|-----------------------------------|---------------------[Guit 2: Solo starts]-|
A|------10----10----8-----8-----8\7--|------10----10-----------------------------|
F|------9-----9-----7-----7-----7\6--|------9-----9-----------------7-7-7-7-7-7--|
C|------7-----7-----5-----5-----5\4--|------7-----7-----------------5-5-5-5-5-5--|
G|--0-0---0-0---0-0---0-0---0-0------|--0-0---0-0---0-0-5-5-5-5-5-5--------------|
D|-----------------------------------|------------------3-3-3-3-3-3--------------|
x x x x x x x x x x x x x x x x x x x x x x x x x x x x
She’s got looks that kill. She’s got looks...

[Rhythm during guitar solo](Guitar 1)
D|-----------------------------------|-----------------------------------|
A|------10----10----8-----8-----8\7--|------10----10----8-----8-----8\7--|
F|------9-----9-----7-----7-----7\6--|------9-----9-----7-----7-----7\6--|
C|------7-----7-----5-----5-----5\4--|------7-----7-----5-----5-----5\4--|
G|--0-0---0-0---0-0---0-0---0-0------|--0-0---0-0---0-0---0-0---0-0------|
D|-----------------------------------|-----------------------------------|
x x x x x x x x x x x x x x x x x x x x

D|-----------------------------------|-----------------------------------|
A|------10----10----8-----8-----8\7--|------10----10----8-----8-----8\7--|
F|------9-----9-----7-----7-----7\6--|------9-----9-----7-----7-----7\6--|
C|------7-----7-----5-----5-----5\4--|------7-----7-----5-----5-----5\4--|
G|--0-0---0-0---0-0---0-0---0-0------|--0-0---0-0---0-0---0-0---0-0------|
D|-----------------------------------|-----------------------------------|
x x x x x x x x x x x x x x x x x x x x

D|-----------------------------------|
A|--6--------------------------------|
F|--5--------------------------------|
C|--3--------------------------------|
G|-----------------------------------|
D|-----------------------------------|
let ring.

[Intro to Verse 3]
[Guitar 1 only]
D|-----------------------------------|-----------------------------------|
A|------10----10----8-----8-----8\7--|------10----10----8-----8-----8\7--|
F|------9-----9-----7-----7-----7\6--|------9-----9-----7-----7-----7\6--|
C|------7-----7-----5-----5-----5\4--|------7-----7-----5-----5-----5\4--|
G|--0-0---0-0---0-0---0-0---0-0------|--0-0---0-0---0-0---0-0---0-0------|
D|-----------------------------------|-----------------------------------|
x x x x x x x x x x x x x x x x x x x x

D|-----------------------------------|-----------------------------------|
A|------10----10----8-----8-----8\7--|------10----10----8-----8-----8\7--|
F|------9-----9-----7-----7-----7\6--|------9-----9-----7-----7-----7\6--|
C|------7-----7-----5-----5-----5\4--|------7-----7-----5-----5-----5\4--|
G|--0-0---0-0---0-0---0-0---0-0------|--0-0---0-0---0-0---0-0---0-0------|
D|-----------------------------------|-----------------------------------|
x x x x x x x x x x | x x x x x x x x x x
Hey!

[Guitar 2]
|--22b(24)~~~~~~~~~~~~~~~~~~~~~~~~--|
|-----------------------------------|
|-----------------------------------|
|-----------------------------------|
|-----------------------------------|
|-----------------------------------|
use vibrato bar

(Now repeat Verse 1 and the Pre-chorus, and then)

[3rd Chorus]
D|-----------------------------------|-----------------------------------|
A|------10----10----8-----8-----8\7--|------10----10----8-----8-----8\7--|
F|------9-----9-----7-----7-----7\6--|------9-----9-----7-----7-----7\6--|
C|------7-----7-----5-----5-----5\4--|------7-----7-----5-----5-----5\4--|
G|--0-0---0-0---0-0---0-0---0-0------|--0-0---0-0---0-0---0-0---0-0------|
D|-----------------------------------|-----------------------------------|
x x x x x x x x x x x x x x x x x x x x
She’s got looks that kill. She’s got looks that kill.

[Mid-chorus break](3 bars of 2/4)
D|------------------|-----------------|-----------------|
A|---------x-13p12--|---------x-10p9--|---------x--8p7--|
F|---------x-12-----|---------x--9----|---------x--7----|
C|--14-14--x--------|--12-12--x-------|--10-10--x-------|
G|--12-11-----------|--10--9----------|---8--7----------|
D|------------------|-----------------|-----------------|

[Chorus continued]
D|-----------------------------------|-----------------------------------|
A|------10----10----8-----8-----8\7--|------10----10----8-----8-----8\7--|
F|------9-----9-----7-----7-----7\6--|------9-----9-----7-----7-----7\6--|
C|------7-----7-----5-----5-----5\4--|------7-----7-----5-----5-----5\4--|
G|--0-0---0-0---0-0---0-0---0-0------|--0-0---0-0---0-0---0-0---0-0------|
D|-----------------------------------|-----------------------------------|
x x x x x x x x x x x x x x x x x x x x
She’s got looks that kill. She’s got looks that kill.

D|-----------------------------------|-----------------------------------|
A|------10----10----8-----8-----8\7--|------10----10----8-----8-----8\7--|
F|------9-----9-----7-----7-----7\6--|------9-----9-----7-----7-----7\6--|
C|------7-----7-----5-----5-----5\4--|------7-----7-----5-----5-----5\4--|
G|--0-0---0-0---0-0---0-0---0-0------|--0-0---0-0---0-0---0-0---0-0------|
D|-----------------------------------|-----------------------------------|
x x x x x x x x x x x x x x x x x x x x
She’s got looks that kill. She’s got looks that kill.

[Ending]
[Guitar 1]
D|--------------------------------------------| b = bend
A|--------------------------------------------| v = vibrato bar dip
F|--2-----------------------------------------| ~ = vibrato
C|--2-----------------------------------------| / = slide up
G|--0-----------------------------------------| \ = slide down
D|--------------------------------------------| h = hammer on
let ring until happy. End. p = pull off
x (inside TAB) = muted note
[Guitar 2] x (under TAB) = palm muting
D|-----------------------------------|
A|--10-------------------------------|
F|--9--------------------------------|
C|--7--------------------------------|
G|--0--------------------------------|
D|-----------------------------------|
let ring until happy. End.

[Guitar solo](Guitar 2)
D|-------------------------------------------------------------------|
A|-----------------------6-5-8-5-8b---8p5h8p5h8p5h8p5h8p5h8p5h8p5-8b-|
F|------------------5-4----------------------------------------------|
C|--5-5-5-5-----7-5--------------------------------------------------|
G|----------8-7------------------------------------------------------|
D|-------------------------------------------------------------------|

D|---------------------------------------------------------------------------------|
A|--5----5-5-----------------------------------------------------------------------|
F|----7b-----7b--7p5--7b-7b-5-------------------7b-7b-7b-7-5-----7b--7-7b-7-7b--7b-|
C|----------------------------7-------------------------------7--------------------|
G|-------------------------------5b~~--------5-------------------------------------|
D|---------------------------------------------------------------------------------|

D|--5---------------------------------------------------------|
A|-----8p5----5-----------------------------------------------|
F|----------8---87--5-7-7-5-----------------------------------|
C|---------------------------7-5------------------------------|
G|--------------------------------7p53-5------------0-v-v-----|
D|-----------------------------------------5-5-5-5------------|

************************************

| \ Slide down
| p Pull-off
| / Slide up
| x Dead note
| h Hammer-on
| b Bend

************************************

Song info
Looks That Kill
Mötley Crüe
2001
  • Rock
  • Hard Rock
  • Heavy Metal
Alternative tracks
Similar songs
Fuzz Universe - Paul Gilbert
Raubritter - Absurd
Not Fakin It - Michael Monroe
Wicked Sensation - Lynch Mob

Hi! Hope you enjoy backing track experience.
If you want to help us in the development of the project, feel free to donate!