Ride The Lightning - Metallica
00:00 / 00:00
Tabs and lyrics
Tunning: Standard (E A D G B e)
Ride the lightning
Performed by Metallica
from the album "Ride the lightning" (1984)
Music by James Hetfield, Lars Ulrich, Clifford Burton
and David Mustaine
Words by James Hetfield


The rhythm in this tab is not correct, you'll have to
listen to the tune to figure it out.

Intro/outro:

e-|-7-8-------5-7------------------------|
B-|-7-8-------3-5------5-7------8-5------|
G-|--------------------2-4---------------|
D-|-----------------------------0-2------|
A-|--------------------------------------|
E-|--------------------------------------|


Riff 1:
P.M. P.M....
e-|-------------------|
B-|-------------------|
G-|-------------------|
D-|-------------------|
A-|-/8-----/8---------|
E-|-/6-0-0-/6-0-0-0-0-|

Riff 2:
P.M
e-|-------------------|
B-|-------------------|
G-|-------------------|
D-|-----------2-----5-|
A-|-4---2---4-0-4---3-|
E-|-2---0---2---2-2---|

Add 1:

e-|--------|
B-|--------|
G-|--------|
D-|-4------|
A-|-4------|
E-|-2------|

Add 2:

e-|-------|
B-|-------|
G-|-------|
D-|-5---4-|
A-|-3---2-|
E-|-------|

Riff 3:

P.M P.M....|
e-|-------------------|
B-|-------------------|
G-|-------------------|
D-|-/5-----/5---------|
A-|-/3-----/3---------|
E-|----2-2----2-2-2-2-|

Chorus:
P.M...........| P.M.........|
e-|-----------------------------------------------------------|
B-|-----------------------------------------------------------|
G-|-----------------------------------------------------------|
D-|-6---5-4---6-----------------6---5-4---6-------------------|
A-|-4---3-2---4-0-0-0-0-0-0-0-0-4---3-2---4-0-0-0-0-0-0-0-2br-|
E-|-----------------------------------------------------------|

Riff 4:
P.M |.| |.....| |-------|
e-|-------------------------------------------------|
B-|-------------------------------------------------|
G-|-------------------------------------------------|
D-|-9\8\7---5-----4---------------------------------|
A-|-7\6\5---3-----2-5-----------5-2-----------5-2---|
E-|-------0---0-0---3---0-0-0-0-3-0-0-0-0-0-0-3-0---|

Riff 5:
P.M...| |.........| |.........| |.........|
e-|-----------------------------------------------------------
B-|-----------------------------------------------------------
G-|-----------------------------------------------------------
D-|---------5---------------5---------------4---------------4-
A-|-4-4-4-4-3---3-3-3-3-3-3-3---3-3-3-3-3-3-2---2-2-2-2-2-2-2-
E-|-----------------------------------------------------------

P.M.......| |.........| |.........| |.........|
---------------------------------------------------------------
---------------------------------------------------------------
---------------------------------------------------------------
-------------3---------------3---------------2---------------2-
-2-2-2-2-2-2-1---1-1-1-1-1-1-1---0-0-0-0-0-0-0---0-0-0-0-0-0-0-
---------------------------------------------------------------

P.M....| |.........| |..........| |..........|
-------------------------------------------------------------|
-------------------------------------------------------------|
-------------------------------------------------------------|
-------------------------------------------------------------|
---------3---------------3---------------5---------------8---|
-1-1-1-1-1---1-1-1-1-1-1-1---1-1-3-3-3-3-3---3-3-6-6-6-6-6---|

Riff 6:
P.M.
e-|----------------|
B-|----------------|
G-|---------5------|
D-|-9\8\7---5------|
A-|-7\6\5---3------|
E-|-------0--------|


Add 3:

e-|--------|
B-|--------|
G-|-4------|
D-|-4------|
A-|-2------|
E-|--------|

Riff 7:
P.M |...|
e-|----------------------------------|
B-|----------------------------------|
G-|-------------5--------------------|
D-|-2-----------5--------------------|
A-|-2-----------3---3-----5/---7-7---|
E-|-0-------0-0-----3-3-3-3/---5-5---|

Riff 8:
P.M....| |......| |.| |.| |.|
e-|----------------------------------------------------------|
B-|----------------------------------------------------------|
G-|----------------------------------------------------------|
D-|-------------7--------------------------------------------|
A-|-4-----------5-----------7/---7---7-------7-------7-------|
E-|-2---2-2-2-2-----5-5-5-5-5/---5---5---5-5-5---5-5-5---5-5-|

Riff 9:

e-|----------------------------------------|
B-|----------------------------------------|
G-|----------------------------------------|
D-|----------------------------------------|
A-|-7---7---7------5---5------3------------|
E-|-5---5---5------3---3------1------------|

Riff 10:
P.M...................................|
e-|-------------------------------------------------------|
B-|-------------------------------------------------------|
G-|-------------------------------------------------------|
D-|-------------------------------------------4---5---4---|
A-|---------4-5-----------4-5-----------4-5---2---3---2---|
E-|-0-0-0-0-2-3---0-0-0-0-2-3---0-0-0-0-2-3---------------|

Riff 11:
P.M....| |.........| |.........| |.........|
e-|------------------------------------------------------------
B-|------------------------------------------------------------
G-|------------------------------------------------------------
D-|---------5---------------5---------------4---------------4--
A-|-3-3-3-3-3---3-3-3-3-3-3-3---3-3-2-2-2-2-2---2-2-2-2-2-2-2--
E-|------------------------------------------------------------

P.M........| |..........| |.........| |..|
-----------------------------------------------------
-----------------------------------------------------
-----------------------------------------------------
-------------3---------------3---------------2-------
-2-2-1-1-1-1-1---1-1-1-1-1-1-1---1-1-0-0-0-0-0---0-0-
-----------------------------------------------------

P.M.....| |..|
-----------------|
-----------------|
-----------------|
---------2-------|
-0-0-0-0-0---0-0-|
-----------------|


Riff 12:
P.M....| P.M........| P.M........| P.M.......|
e-|-----------------------------------------------------------|
B-|-----------------------------------------------------------|
G-|-----------------------------------------------------------|
D-|---------10--------------10--------------7---------------8-|
A-|-8-8-8-8-8---8-8-8-8-8-8-8---8-8-5-5-5-5-5---5-5-6-6-6-6-6-|
E-|-----------------------------------------------------------|

Add 4:

e-|-------------|
B-|-------------|
G-|-------------|
D-|-5---4---3---|
A-|-3---2---1---|
E-|-------------|

Riff 13:

e-|------------------------|
B-|------------------------|
G-|------------------------|
D-|-----------2-----5------|
A-|-4---2---4-0-4---3------|
E-|-2---0---2---2----------|

Riff 14:

e-|---------------------|
B-|---------------------|
G-|---------------------|
D-|-----------2---------|
A-|-4---2---4-0-4---2---|
E-|-2---0---2---2---0---|

Riff 15:
P.M. |.| |.| |.|
e-|-------------------------------------------------------|
B-|-------------------------------------------------------|
G-|-------------------------------------------------------|
D-|-----------2-----5-------5-------5-------5-------5\4---|
A-|-4---2---4-0-4---3---3-3-3---3-3-3---3-3-3---3-3-3\2---|
E-|-2---0---2---2-----------------------------------------|

Add 5:
P.M.......... .|
e-|-----------------|
B-|-----------------|
G-|-----------------|
D-|-----------------|
A-|-----------------|
E-|-0-0-0-0-0-0-0-0-|


That was all the riffs, lads!
This will show you when to play them:

Intro x4
Riff 1 x12
Riff 2 x4
Add 1 x1
Add 2 x1
Riff 1 x4
Add 2 x1
Riff 1 x4
Add 2 x1
Riff 3 x4
Chorus x1
Riff 3 x2
Chorus x1
Riff 2 x4
Riff 1 x4
Add 2 x1
Riff 1 x4
Add 2 x1
Riff 3 x4
Chorus x1
Riff 3 x2
Chorus x1
Riff 4 x4
Riff 5 x1
Riff 4 x3
Riff 6 x1
Add 3 x1
Riff 7 x4
Riff 8 x4
Riff 9 x1
Riff 10 x4
Riff 11 x2
Riff 12 x1
Riff 11 x1
Riff 12 x1
Riff 4 x4
Riff 5 x1
Riff 4 x3
Riff 6 x1
Riff 1 x12
Add 4 x1
Add 1 x1
Riff 1 x4
Add 1 x1
Riff 1 x4
Add1 x1
Riff 3 x4
Chorus x1
Riff 3 x2
Chorus x1
Riff 2 x4
Riff 13 x1
Riff 14 x1
Riff 13 x1
Riff 14 x1
Riff 15 x1
Riff 14 x1
Add 5 x1
Riff 15 x1
Riff 14 x1
Add 5 x1
Outro x1

Lyrics:
Guilty as charged, but damn it, it ain't right.
There's someone else controlling me.
Death in the air. strapped in the Electric chair.
This can't be happening to me.
Who made you god to say:
"I'll take your life from you"?

Flash before my eyes, now it's time to die.
Burning in my brain, I can feel the flames.

Wait for the sign, to flick the switch of death.
It's the beginning of the end.
Sweat chilling cold as i watch death unfold,
consciousness, my only friend.
My fingers grip with fear. What am I doing here?

Flash...

Someone help me! Oh, please god help me!
They're trying to take it all away.
I don't want to die!

Time moving slow, the minutes seem like hours.
The final curtain call I see.
How true is this? Just get it over with.
f this is true just let it be.
Wakened by the horrid scream.
Freed from this frightening dream.

Flash...


Tunning: Nashville (E A D G B E)
Metallica - Ride The Lightning


Lead

E||------------------|----------------7--||---8~---------7~--------|
B||------------------|----------------7--||---8~-----10------------|
G||------------------|-------------------||*---------7---9~-----9--|
D||------------------|-------------------||*--------------------7--|
A||------------------|-------------------||------------------------|
E||------------------|-------------------||------------------------|



-------------------7---||---8~---------7~--------|-------------------7---||
--7~-----8---------7---||---8~-----10------------|--7~-----8---------7---||
------------9~--------*||*---------7---9~-----9--|------------9~--------*||
--9~------------------*||*--------------------7--|--9~------------------*||
---------5--7~---------||------------------------|---------5--7~---------||
-----------------------||------------------------|-----------------------||



-----------------------------||---------------------------|
--7~-----8-------------------||---------------------------|
------------9~---------------||*--------------------------|
--9~-------------------------||*--------------------------|
---------5--7~---x-x-x-x-x---||---8--------8--------------|
-----------------x-x-x-x-x-x-||---6--0--0--6--0--0--0--0--|



---------------------------||---------------------------|
---------------------------||---------------------------|
--------------------------*||*--------------------------|
--------------------------*||*--------------------------|
--8--------8---------------||---8--------8--------------|
--6--0--0--6--0--0--0--0---||---6--0--0--6--0--0--0--0--|


3x
---------------------------||-------------------------|
---------------------------||-------------------------|
--------------------------*||*------------------------|
--------------------------*||*---------------2-----5--|
--8--------8---------------||---4----2----4--0--4--3--|
--6--0--0--6--0--0--0--0---||---2----0----2-----2-----|



-------------------------||-----------------|--------------------------|
-------------------------||-----------------|--------------------------|
------------------------*||-----------------|--------------------------|
---------------2-----5--*||-----------5--4--|--------------------------|
--4----2----4--0--4--3---||--4--------3--2--|--8--------8--------------|
--2----0----2-----2------||--2--------------|--6--0--0--6--0--0--0--0--|



--------------------------|--------------------------|
--------------------------|--------------------------|
--------------------------|--------------------------|
--------------------------|--------------------------|
--8--------8--------------|--8--------8--------------|
--6--0--0--6--0--0--0--0--|--6--0--0--6--0--0--0--0--|



--------------------------|--------------------------|
--------------------------|--------------------------|
--------------------------|--------------------------|
--------------------------|--------------------------|
--8--------8--------------|--8--------8--------------|
--6--0--0--6--0--0--0--0--|--6--0--0--6--0--0--0--0--|



--------------------------|--------------------------|
--------------------------|--------------------------|
--------------------------|--------------------------|
--------------------------|--------------------------|
--8--------8--------------|--8--------8--------------|
--6--0--0--6--0--0--0--0--|--6--0--0--6--0--0--0--0--|



--------------------------|----------------------------|
--------------------------|----------------------------|
--------------------------|----------------------------|
--------------------------|----------------------------|
--8--------8--------------|--2h4-------2h4-------------|
--6--0--0--6--0--0--0--0--|--2---2--2--2---2--2--2--2--|



----------------------------|----------------------------|
----------------------------|----------------------------|
----------------------------|----------------------------|
----------------------------|----------------------------|
--2h4-------2h4-------------|--2h4-------2h4-------------|
--2---2--2--2---2--2--2--2--|--2---2--2--2---2--2--2--2--|



----------------------------|----------------------|-----------------------|
----------------------------|----------------------|-----------------------|
----------------------------|----------------------|-----------------------|
----------------------------|--6------5--4------6--|--2--2--2--2--2--2--2-2|
--2h4-------2h4-------------|--4------3--2------4--|--0--0--0--0--0--0--0-0|
--2---2--2--2---2--2--2--2--|----------------------|-----------------------|



----------------------|--------------------------|-------------------------|
----------------------|--------------------------|-------------------------|
----------------------|--------------------------|-------------------------|
--6------5--4------6--|--2--2--2--2--2--2--------|-------------------------|
--4------3--2------4--|--0--0--0--0--0--0--2-2~--|--2h4-------2h4----------|
----------------------|--------------------------|--2---2--2--2---2--2--2-2|



----------------------------|----------------------|-----------------------|
----------------------------|----------------------|-----------------------|
----------------------------|----------------------|-----------------------|
----------------------------|--6------5--4------6--|--2--2--2--2--2--2--2-2|
--2h4-------2h4-------------|--4------3--2------4--|--0--0--0--0--0--0--0-0|
--2---2--2--2---2--2--2--2--|----------------------|-----------------------|



----------------------|--------------------------|------------------------|
----------------------|--------------------------|------------------------|
----------------------|--------------------------|------------------------|
--6------5--4------6--|--2--2--2--2--2--2--------|---------------2-----5--|
--4------3--2------4--|--0--0--0--0--0--0--2-2~--|--4----2----4--0--4--3--|
----------------------|--------------------------|--2----0----2-----2-----|



------------------------|------------------------|------------------------|
------------------------|------------------------|------------------------|
------------------------|------------------------|------------------------|
---------------2-----5--|---------------2-----5--|---------------2-----5--|
--4----2----4--0--4--3--|--4----2----4--0--4--3--|--4----2----4--0--4--3--|
--2----0----2-----2-----|--2----0----2-----2-----|--2----0----2-----2-----|



--------------------------|--------------------------|
--------------------------|--------------------------|
--------------------------|--------------------------|
--------------------------|--------------------------|
--8--------8--------------|--8--------8--------------|
--6--0--0--6--0--0--0--0--|--6--0--0--6--0--0--0--0--|



--------------------------|--------------------------|
--------------------------|--------------------------|
--------------------------|--------------------------|
--------------------------|--------------------------|
--8--------8--------------|--8--------8--------------|
--6--0--0--6--0--0--0--0--|--6--0--0--6--0--0--0--0--|



--------------------------|--------------------------|
--------------------------|--------------------------|
--------------------------|--------------------------|
--------------------------|--------------------------|
--8--------8--------------|--8--------8--------------|
--6--0--0--6--0--0--0--0--|--6--0--0--6--0--0--0--0--|



--------------------------|--------------------------|
--------------------------|--------------------------|
--------------------------|--------------------------|
--------------------------|--------------------------|
--8--------8--------------|--8--------8--------------|
--6--0--0--6--0--0--0--0--|--6--0--0--6--0--0--0--0--|



----------------------------|----------------------------|
----------------------------|----------------------------|
----------------------------|----------------------------|
----------------------------|----------------------------|
--2h4-------2h4-------------|--2h4-------2h4-------------|
--2---2--2--2---2--2--2--2--|--2---2--2--2---2--2--2--2--|



----------------------------|----------------------------|
----------------------------|----------------------------|
----------------------------|----------------------------|
----------------------------|----------------------------|
--2h4-------2h4-------------|--2h4-------2h4-------------|
--2---2--2--2---2--2--2--2--|--2---2--2--2---2--2--2--2--|



----------------------|--------------------------|----------------------|
----------------------|--------------------------|----------------------|
----------------------|--------------------------|----------------------|
--6------5--4------6--|--2--2--2--2--2--2--2--2--|--6------5--4------6--|
--4------3--2------4--|--0--0--0--0--0--0--0--0--|--4------3--2------4--|
----------------------|--------------------------|----------------------|



--------------------------|----------------------------|
--------------------------|----------------------------|
--------------------------|----------------------------|
--2--2--2--2--2--2--------|----------------------------|
--0--0--0--0--0--0--2-2~--|--2h4-------2h4-------------|
--------------------------|--2---2--2--2---2--2--2--2--|



----------------------------|----------------------|-----------------------|
----------------------------|----------------------|-----------------------|
----------------------------|----------------------|-----------------------|
----------------------------|--6------5--4------6--|--2--2--2--2--2--2--2-2|
--2h4-------2h4-------------|--4------3--2------4--|--0--0--0--0--0--0--0-0|
--2---2--2--2---2--2--2--2--|----------------------|-----------------------|



----------------------|--------------------------|-------------------------|
----------------------|--------------------------|-------------------------|
----------------------|--------------------------|--9--8--7-----5-----4----|
--6------5--4------6--|--2--2--2--2--2--2--------|--9--8--7-----5-----4--5-|
--4------3--2------4--|--0--0--0--0--0--0--2-2~--|--7--6--5-----3-----2--5-|
----------------------|--------------------------|-----------6--3--4--2--3-|



--------------------------------|--------------------------|
--------------------------------|--------------------------|
--------------------------------|--9--8--7-----5-----4-----|
----------5--------------5------|--9--8--7-----5-----4--5--|
----------5--------------5------|--7--6--5-----3-----2--5--|
--0-0-0-0----0-0-0-0-0-0----0-0-|-----------6--3--4--2--3--|



--------------------------------|--------------------------|
--------------------------------|--------------------------|
--------------------------------|--9--8--7-----5-----4-----|
----------5--------------5------|--9--8--7-----5-----4--5--|
----------5--------------5------|--7--6--5-----3-----2--5--|
--0-0-0-0----0-0-0-0-0-0----0-0-|-----------6--3--4--2--3--|



--------------------------------|--------------------------|
--------------------------------|--------------------------|
--------------------------------|--9--8--7-----5-----4-----|
----------5--------------5------|--9--8--7-----5-----4--5--|
----------5--------------5------|--7--6--5-----3-----2--5--|
--0-0-0-0----0-0-0-0-0-0----0-0-|-----------6--3--4--2--3--|



--------------------------------|--------------------------------|
--------------------------------|--------------------------------|
--------------------------------|----------5--------------5------|
----------5--------------5------|--5-5-5-5-5--5-5-5-5-5-5-5--5-5-|
----------5--------------5------|--3-3-3-3-3--3-3-3-3-3-3-3--3-3-|
--0-0-0-0----0-0-0-0-0-0----0-0-|--------------------------------|



--------------------------------|--------------------------------|
--------------------------------|--------------------------------|
----------4--------------4------|----------3--------------3------|
--4-4-4-4-4--4-4-4-4-4-4-4--4-4-|--3-3-3-3-3--3-3-3-3-3-3-3--3-3-|
--2-2-2-2-2--2-2-2-2-2-2-2--2-2-|--1-1-1-1-1--1-1-1-1-1-1-1--1-1-|
--------------------------------|--------------------------------|



--------------------------------|--------------------------------|
--------------------------------|--------------------------------|
----------2--------------2------|--------------------------------|
--2-2-2-2-2--2-2-2-2-2-2-2--3-3-|----------3--------------3------|
--0-0-0-0-0--0-0-0-0-0-0-0--3-3-|--3-3-3-3-3--3-3-3-3-3-3-3--3-3-|
----------------------------1-1-|--1-1-1-1-1--1-1-1-1-1-1-1--1-1-|



--------------------------------|--------------------------|
--------------------------------|--------------------------|
--------------------------------|--9--8--7-----5-----4-----|
----------5--------------8------|--9--8--7-----5-----4--5--|
--5-5-5-5-5--5-5-8-8-8-8-8--8-8-|--7--6--5-----3-----2--5--|
--3-3-3-3-3--3-3-6-6-6-6-6--6-6-|-----------6--3--4--2--3--|



--------------------------------||---------------------------|
--------------------------------||---------------------------|
--------------------------------||*--9--8--7-----5-----4-----|
----------5--------------5------||*--9--8--7-----5-----4--5--|
----------5--------------5------||---7--6--5-----3-----2--5--|
--0-0-0-0----0-0-0-0-0-0----0-0-||------------6--3--4--2--3--|



---------------------------------||--------------|-------------------|
---------------------------------||--------------|-------------------|
--------------------------------*||--9--8--7-----|--5----------------|
----------5--------------5------*||--9--8--7-----|--5----------------|
----------5--------------5-------||--7--6--5--0--|--3----------------|
--0-0-0-0----0-0-0-0-0-0----0-0--||--------------|-------------------|



------------------|-------------------|------------------|-----------------|
------------------|-------------------|------------------|-----------------|
------------------|--4----------------|------------------|-----------------|
------------------|--4----------------|------------------|-----------------|
------------------|--2----------------|------------------|--2--------------|
------------------|-------------------|------------------|--0-----------0-3|



---------------------|---------------------|------------------|
---------------------|---------------------|------------------|
--5------------------|---------------------|------------------|
--5------------------|--5----7----7--------|------------------|
--3------------------|--5----7----7--------|------------------|
---------------0--2--|--3----5----5--------|------------------|



---------------------|---------------------|---------------------|
---------------------|---------------------|---------------------|
---------------------|--5------------------|---------------------|
---------------------|--5------------------|--5----7----7--------|
--2------------------|--3------------------|--5----7----7--------|
--0------------0--3--|---------------0--2--|--3----5----5--------|



------------------|
------------------|
------------------|
------------------|
------------------|
------------------|



---------------------------------------------------------------------------|
---------------------------------------------------------------------------|
--12-9-5-12-5-9-12-5-12-9-5-12-9-12-5-9-12-9-5-12-9-12-5-9-12-9-5-12-9-5-12|
---------------------------------------------------------------------------|
---------------------------------------------------------------------------|
---------------------------------------------------------------------------|



----------------------------------------------------------------------|
----------------------------------------------------------------------|
---9-5-9-12-5-12-9-5-9-12-5-9-12-5-9-12-5-9-12-5-9-12-5-9-12-5-9-12-5-|
----------------------------------------------------------------------|
----------------------------------------------------------------------|
----------------------------------------------------------------------|



---------------------------------------------------------------------|
---------------------------------------------------------------------|
--5-12-9-12-9-5-9-12-5-9-12-9-5-12-9-5-9-12-9-5-12-9-5-9-12-9-5-12-9-|
---------------------------------------------------------------------|
---------------------------------------------------------------------|
---------------------------------------------------------------------|



------------------------------------------------|--------------------------|
------------------------------------------------|--------------------------|
---5-12-9-5-9-12-9-5-12-9-5-12-9-5-14-----------|--14b---14b-----14----12--|
------------------------------------------------|--------------------------|
------------------------------------------------|--------------------------|
------------------------------------------------|--------------------------|



---------------------------------|----------------------------|
---------------------------------|----------------------------|
--11~-------11--12--11-12-11-----|----------------------------|
-----------------------------14--|--12------12--12--14~-------|
---------------------------------|------14--------------------|
---------------------------------|----------------------------|



-------------------------------|--------------------------|
-----------------------------5-|--5--7--7--7--7--8--8--8--|
-------------------------------|--------------------------|
--------14-------------------2-|--2--4--4--4--4--5--5--5--|
------------x-x-x-x-x-x-x-x----|--------------------------|
------------x-x-x-x-x-x-x-x----|--------------------------|



-------------------------------|----------------------------------|
--8--10--10--10--10--8--8--10--|--10--12--12--10--10--12--12--13--|
-------------------------------|----------------------------------|
--5--7---7---7---7---5--5--7---|--7---9---9---7---7---9---9---10--|
-------------------------------|----------------------------------|
-------------------------------|----------------------------------|



--------------------------------|--------------------------|
--13--15--15--17--17------------|--------------------------|
--------------------------------|--------------19--21r--19-|
--10--12--12--14--14----17--19--|--21~---------------------|
--------------------------------|--------------------------|
--------------------------------|--------------------------|



----------------------------------|--------19--------------22~---|
----------------------------------|------------22~---22-19-------|
--21--19------19~-------19--19h21-|--21~-------------------------|
----------21--------21------------|------------------------------|
----------------------------------|------------------------------|
----------------------------------|------------------------------|



--22-19-19h22-19-19-----19------------14-|
---------------------22----22b-----17----|
-----------------------------------------|
-----------------------------------------|
-----------------------------------------|
-----------------------------------------|



--17-14----14-17-14----14-------------17-14-------|
--------17----------17-------14h17p14-------17-14-|
--------------------------16----------------------|
--------------------------------------------------|
--------------------------------------------------|
--------------------------------------------------|



--------------------------------------------------|
-----14-17-14-------------------------------------|
--16b---------16-14----14-16-14-------------------|
--------------------16----------16-14----14-16-14-|
--------------------------------------16----------|
--------------------------------------------------|



----------------------------------------------|
----------------------------------------------|
--------------------------------------14--16--|
------------------------------14--16----------|
--16-14-14-12-14-12----12-16------------------|
--------------------14------------------------|



----------------------------------|------------------------17b-|
------------------------------14--|--17r---17r---17r---14------|
--16-14-----14h-16--14~---16------|----------------------------|
--------16------------------------|----------------------------|
----------------------------------|----------------------------|
----------------------------------|----------------------------|



----17--17b-17--17~---17--14--|
------------------------------|
------------------------------|
------------------------------|
------------------------------|
------------------------------|



--17-14-14-14-17-14-------------------------------|--19b---17b---------14--|
--------------------17-14----14-17-14-------------|--------------19/---17--|
--------------------------16b---------16-14----14-|--16b---14b-------------|
--------------------------------------------16----|--------------16/-------|
--------------------------------------------------|------------------------|
--------------------------------------------------|------------------------|



--17-14-14-14-14-17-14-19-14-17-14----14-17-17-19-14-|
-----------------------------------17----------------|
-----------------------------------------------------|
-----------------------------------------------------|
-----------------------------------------------------|
-----------------------------------------------------|



--17-14----14-14-17-17-19-14-17-14----14-17-17-19-14-|
--------17-------------------------17----------------|
-----------------------------------------------------|
-----------------------------------------------------|
-----------------------------------------------------|
-----------------------------------------------------|



--17--14------14----------------------------------|
----------17------17--14--17--14------14----------|
----------------------------------16------16--14--|
--------------------------------------------------|
--------------------------------------------------|
--------------------------------------------------|



------------------------------------|--------------------------------------|
------------------------------------|----------14--15--14-15-14-----14--15-|
--16--14------14--16----------------|--14--16-------------------16---------|
----------16----------14----14--16--|--------------------------------------|
------------------------------------|--------------------------------------|
------------------------------------|--------------------------------------|



------14--15p14---------------------|
--17------------17--15--14--15--17--|
------------------------------------|
------------------------------------|
------------------------------------|
------------------------------------|



--14--15--17--15--17--19--17--19--20--19-20-22-22b|-----22b---22b--17-19-21|
--------------------------------------------------|----------------15-17-19|
--------------------------------------------------|------------------------|
--------------------------------------------------|------------------------|
--------------------------------------------------|------------------------|
--------------------------------------------------|------------------------|



--21-19-17-15-19-17-15-14-17--15--12--15--12-13-14--|
--21-19-17-15-19-17-15-13-17--15--12--15--13-12-13--|
----------------------------------------------------|
----------------------------------------------------|
----------------------------------------------------|
----------------------------------------------------|



--17--15--12--15--12------14--12------12------------|--------------------|
------15--12--15--13--15--13--12--13------15--13-12-|--------------------|
----------------------12----------12--16--14--12-11-|--10----------------|
----------------------------------------------------|--10----------------|
----------------------------------------------------|--8-----------------|
----------------------------------------------------|--------------------|



--------------|--12--12--12--12--12--12--12--12--|
--------------|--15b-----15b-----15b-----15b-----|
--------------|----------------------------------|
--------------|----------------------------------|
--------------|----------------------------------|
--------------|----------------------------------|



--12--12--12--12--12--12--12--12-12-|
--15b-----15b-----15b-----15b-------|
------------------------------------|
------------------------------------|
------------------------------------|
------------------------------------|



--15-12-14-12----12----------------------------------|
--------------15----15-14-12-14-12-------------------|
-----------------------------------14-12----12-14-12-|
-----------------------------------------14----------|
-----------------------------------------------------|
-----------------------------------------------------|



----------------------12--|--16--14--12--------------16--14--12------------|
--15~---15~---15~-----12--|--16--14--12--16--14--12--16--14--12--16--14--12|
--14~---14~---14~---------|--------------15--13--11--------------15--13--11|
--------------------------|------------------------------------------------|
--------------------------|------------------------------------------------|
--------------------------|------------------------------------------------|



--17--16--14--------------17--16--14--------------|
--17--16--14--17--16--14--17--16--14--17--16--14--|
--------------16--15--13--------------16--15--13--|
--------------------------------------------------|
--------------------------------------------------|
--------------------------------------------------|



--19--17--16--------------19--17--16--------------|
--19--17--16--19--17--16--19--17--16--19--17--16--|
--------------18--16--15--------------18--16--15--|
--------------------------------------------------|
--------------------------------------------------|
--------------------------------------------------|



--22--21--19--------------22b-------8--|
--22--21--19--22--21--19--22b---10-----|
--------------21--20--18---------------|
---------------------------------------|
---------------------------------------|
---------------------------------------|



--19-15----15-19-15----15-19-15----17-19-15----14-|
--------17----------17----------17----------17----|
--------------------------------------------------|
--------------------------------------------------|
--------------------------------------------------|
--------------------------------------------------|



--17-14----14-17-14----14-17-14----14-17-14----13-|
--------15----------15----------15----------15----|
--------------------------------------------------|
--------------------------------------------------|
--------------------------------------------------|
--------------------------------------------------|



--17-13----13-17-13----13-17-13----13-17-13----12-|
--------15----------15----------15----------15----|
--------------------------------------------------|
--------------------------------------------------|
--------------------------------------------------|
--------------------------------------------------|



--16-12----12-16-12----12-16-12----12-16-12----12/|
--------12----------12----------12----------12----|
--------------------------------------------------|
--------------------------------------------------|
--------------------------------------------------|
--------------------------------------------------|



--19-15----15-19-15----15-19-15----17-19-15----14-|
--------17----------17----------17----------17----|
--------------------------------------------------|
--------------------------------------------------|
--------------------------------------------------|
--------------------------------------------------|



--17-14----14-17-14----14-17-14----14-17-14----13-|
--------15----------15----------15----------15----|
--------------------------------------------------|
--------------------------------------------------|
--------------------------------------------------|
--------------------------------------------------|



--17-13----13-17-13----13-17-13----13-17-13----12-|
--------15----------15----------15----------15----|
--------------------------------------------------|
--------------------------------------------------|
--------------------------------------------------|
--------------------------------------------------|



--16-12----12-16-12----12-16-12----12-16-12----10-|
--------12----------12----------12----------12----|
--------------------------------------------------|
--------------------------------------------------|
--------------------------------------------------|
--------------------------------------------------|



--13-8----8-13-8----8-13-8----8-13-8----10-|
-------10-8-10-8-10-8-10-8-10-8-10-8-10-10-|
-----------------9---------9---------9-----|
-------------------------------------------|
-------------------------------------------|
-------------------------------------------|



--15-10----10-15-10----13-18-13----13-18-13----15-|
--12-10-12-10-12-10-12-13-15-13-15-13-15-13-15-15-|
--------11----------11----------14----------14----|
--------------------------------------------------|
--------------------------------------------------|
--------------------------------------------------|



--20-15----15-20-15-20-15----15-20-15-20-15----15-|
--20-15-17-15-20-15-20-15-17-15-20-15-20-15-17-15-|
--------16----------------16----------------16----|
--------------------------------------------------|
--------------------------------------------------|
--------------------------------------------------|



--19-15----15-19-15-19-15----15-19-15-19-15----15-|
--19-15-17-15-19-15-19-15-17-15-19-15-19-15-17-15-|
--------16----------------16----------------16----|
--------------------------------------------------|
--------------------------------------------------|
--------------------------------------------------|



--18-15----15-18-15-18-15----15-18-15-18-15----15-|
--18-15-17-15-18-15-18-15-17-15-18-15-18-15-17-15-|
--------16----------------16----------------16----|
--------------------------------------------------|
--------------------------------------------------|
--------------------------------------------------|



--17-15----15-17-15-17-15----15-17-15-17-15----15-|
--17-15-17-15-17-15-17-15-17-15-17-15-17-15-17-15-|
--------16----------------16----------------16----|
--------------------------------------------------|
--------------------------------------------------|
--------------------------------------------------|



--13-8----8-13-8-13-8----8-13-8-13-8----8-|
--10-8-10-8-10-8-10-8-10-8-10-8-10-8-10-8-|
-------9--------------9--------------9----|
------------------------------------------|
------------------------------------------|
------------------------------------------|



--15-10----10-15-10----12-18-13----13-18-13----13-||-----------------------|
--12-10-12-10-12-10-12-12-15-13-15-13-15-13-15-13-||-----------------------|
--------11----------11----------14----------14----||*-9--8--7-----5-----4--|
--------------------------------------------------||*-9--8--7-----5-----4-5|
--------------------------------------------------||--7--6--5-----3-----2-5|
--------------------------------------------------||-----------6--3--4--2-3|



--------------------------------|--------------------------|
--------------------------------|--------------------------|
--------------------------------|--9--8--7-----5-----4-----|
----------5--------------5------|--9--8--7-----5-----4--5--|
----------5--------------5------|--7--6--5-----3-----2--5--|
--0-0-0-0----0-0-0-0-0-0----0-0-|-----------6--3--4--2--3--|



---------------------------------||--------------------------------|
---------------------------------||--------------------------------|
--------------------------------*||----------5--------------5------|
----------5--------------5------*||--5-5-5-5-5--5-5-5-5-5-5-5--5-5-|
----------5--------------5-------||--3-3-3-3-3--3-3-3-3-3-3-3--3-3-|
--0-0-0-0----0-0-0-0-0-0----0-0--||--------------------------------|



--------------------------------|--------------------------------|
--------------------------------|--------------------------------|
----------4--------------4------|----------3--------------3------|
--4-4-4-4-4--4-4-4-4-4-4-4--4-4-|--3-3-3-3-3--3-3-3-3-3-3-3--3-3-|
--2-2-2-2-2--2-2-2-2-2-2-2--2-2-|--1-1-1-1-1--1-1-1-1-1-1-1--1-1-|
--------------------------------|--------------------------------|



--------------------------------|--------------------------------|
--------------------------------|--------------------------------|
----------2--------------2------|--------------------------------|
--2-2-2-2-2--2-2-2-2-2-2-2--3-3-|----------3--------------3------|
--0-0-0-0-0--0-0-0-0-0-0-0--3-3-|--3-3-3-3-3--3-3-3-3-3-3-3--3-3-|
----------------------------1-1-|--1-1-1-1-1--1-1-1-1-1-1-1--1-1-|



--------------------------------|--------------------------|
--------------------------------|--------------------------|
--------------------------------|--9--8--7-----5-----4-----|
----------5--------------8------|--9--8--7-----5-----4--5--|
--5-5-5-5-5--5-5-8-8-8-8-8--8-8-|--7--6--5-----3-----2--5--|
--3-3-3-3-3--3-3-6-6-6-6-6--6-6-|-----------6--3--4--2--3--|



--------------------------------||---------------------------|
--------------------------------||---------------------------|
--------------------------------||*--9--8--7-----5-----4-----|
----------5--------------5------||*--9--8--7-----5-----4--5--|
----------5--------------5------||---7--6--5-----3-----2--5--|
--0-0-0-0----0-0-0-0-0-0----0-0-||------------6--3--4--2--3--|



---------------------------------||--------------|-------------------|
---------------------------------||--------------|-------------------|
--------------------------------*||--9--8--7-----|-------------------|
----------5--------------5------*||--9--8--7-----|--5----------------|
----------5--------------5-------||--7--6--5--0--|--3----------------|
--0-0-0-0----0-0-0-0-0-0----0-0--||--------------|-------------------|



------------------|------------------|-----------------------|
------------------|------------------|-----------------------|
------------------|------------------|-----------------------|
------------------|------------------|-----------------------|
------------------|------------------|--------------0--x-x-x-|
------------------|------------------|-----------------x-x-x-|



--------------------------|--------------------------|
--------------------------|--------------------------|
--------------------------|--------------------------|
--------------------------|--------------------------|
--8--------8--------------|--8--------8--------------|
--6--0--0--6--0--0--0--0--|--6--0--0--6--0--0--0--0--|



--------------------------|--------------------------|
--------------------------|--------------------------|
--------------------------|--------------------------|
--------------------------|--------------------------|
--8--------8--------------|--8--------8--------------|
--6--0--0--6--0--0--0--0--|--6--0--0--6--0--0--0--0--|


6x
|---------------------------|---------------------------||
|---------------------------|---------------------------||
|*--------------------------|--------------------------*||
|*--------------------------|--------------------------*||
|---8--------8--------------|--8--------8---------------||
|---6--0--0--6--0--0--0--0--|--6--0--0--6--0--0--0--0---||



--------------------------|-----------------|--------------------------|
--------------------------|-----------------|--------------------------|
--------------------------|-----------------|--------------------------|
--------------------5--4--|--3--------5--4--|--------------------------|
--8--------8--------3--2--|--1--------3--2--|--8--------8--------------|
--6--0--0--6--0--0--------|-----------------|--6--0--0--6--0--0--0--0--|



--------------------------|--------------------------|
--------------------------|--------------------------|
--------------------------|--------------------------|
--------------------------|--------------------------|
--8--------8--------------|--8--------8--------------|
--6--0--0--6--0--0--0--0--|--6--0--0--6--0--0--0--0--|



--------------------------|--------------------------|
--------------------------|--------------------------|
--------------------------|--------------------------|
--------------------------|--------------------------|
--8--------8--------------|--8--------8--------------|
--6--0--0--6--0--0--0--0--|--6--0--0--6--0--0--0--0--|



--------------------------|--------------------------|
--------------------------|--------------------------|
--------------------------|--------------------------|
--------------------------|--------------------------|
--8--------8--------------|--8--------8--------------|
--6--0--0--6--0--0--0--0--|--6--0--0--6--0--0--0--0--|



--------------------------|----------------------------|
--------------------------|----------------------------|
--------------------------|----------------------------|
--------------------------|----------------------------|
--8--------8--------------|--2h4-------2h4-------------|
--6--0--0--6--0--0--0--0--|--2---2--2--2---2--2--2--2--|



----------------------------|----------------------------|
----------------------------|----------------------------|
----------------------------|----------------------------|
----------------------------|----------------------------|
--2h4-------2h4-------------|--2h4-------2h4-------------|
--2---2--2--2---2--2--2--2--|--2---2--2--2---2--2--2--2--|



----------------------------|----------------------|-----------------------|
----------------------------|----------------------|-----------------------|
----------------------------|----------------------|-----------------------|
----------------------------|--6------5--4------6--|--2--2--2--2--2--2--2-2|
--2h4-------2h4-------------|--4------3--2------4--|--0--0--0--0--0--0--0-0|
--2---2--2--2---2--2--2--2--|----------------------|-----------------------|



----------------------|--------------------------|-------------------------|
----------------------|--------------------------|-------------------------|
----------------------|--------------------------|-------------------------|
--6------5--4------6--|--2--2--2--2--2--2--------|-------------------------|
--4------3--2------4--|--0--0--0--0--0--0--2-2~--|--2h4-------2h4----------|
----------------------|-------------------------|-2---2--2--2---2--2--2--2-|



----------------------------|----------------------|--------------------------|
----------------------------|----------------------|--------------------------|
----------------------------|----------------------|--------------------------|
----------------------------|--6------5--4------6--|--2--2--2--2--2--2--2--2--|
--2h4-------2h4-------------|--4------3--2------4--|--0--0--0--0--0--0--0--0--|
--2---2--2--2---2--2--2--2--|----------------------|--------------------------|



----------------------|--------------------------|------------------------|
----------------------|--------------------------|------------------------|
----------------------|--------------------------|------------------------|
--6------5--4------6--|--2--2--2--2--2--2--2--2--|---------------2-----5--|
--4------3--2------4--|--0--0--0--0--0--0--0--0--|--4----2----4--0--4--3--|
----------------------|--------------------------|--2----0----2-----2-----|



------------------------|------------------------|------------------------|
------------------------|------------------------|------------------------|
------------------------|------------------------|------------------------|
---------------2-----5--|---------------2-----5--|---------------2-----5--|
--4----2----4--0--4--3--|--4----2----4--0--4--3--|--4----2----4--0--4--3--|
--2----0----2-----2-----|--2----0----2-----2-----|--2----0----2-----2-----|



|-------------------------|------------------|------------------------|
|-------------------------|------------------|------------------------|
|*------------------------|------------------|------------------------|
|*---------------2-----5--|------------------|---------------2--------|
|---4----2----4--0--4--3--|------------------|--4----2----4--0--4--2--|
|---2----0----2-----2-----|------------------|--2----0----2-----2--0--|



-------------------||-------------------------|----------------------------|
-------------------||-------------------------|----------------------------|
------------------*||*------------------------|----------------------------|
------------------*||*---------------2-----5--|--------5------5------5-4---|
-------------------||---4----2----4--0--4--3--|----3-3-3--3-3-3--3-3-3-2---|
-------------------||---2----0----2-----2-----|----------------------------|



------------------------|---------------------------||----7--8~---------7~---|
------------------------|---------------------------||----7--8~-----10-------|
------------------------|--------------------------*||--------------7---9~---|
---------------2--------|--------------------------*||-----------------------|
--4----2----4--0--4--2--|---------------------------||-----------------------|
--2----0----2-----2--0--|----------0-0-0-0-0-0-0-0--||-----------------------|



----------------------|------||
-------7~-----8-------|------||
----9------------9/---|------||
----7--9~-------------|------||
--------------5--7/---|------||
----------------------|------||
Tunning: Standard (E A D G B e)
RIDE THE LIGHTNING
As recorded by Metallica
(From the 1984 Album RIDE THE LIGHTNING)

Words and Music by James Hetfield, Lars Ulrich, Cliff Burton & Dave Mustaine

Gtr I (E A D G B E) - 'James Hetfield - Rhythm w/dist'
Gtr II (E A D G B E) - 'James Hetfield - Rhythm w/dist'
Gtr III (E A D G B E) - 'Kirk Hammett - Lead w/dist'
Gtr IV (E A D G B E) - 'Kirk Hammett - Lead II'
Gtr V (E A D G B E) - 'Cliff Burton - Bass arr. for guitar'

Intro
Q=152 1.,2.,3. 4.
E
4/4
Gtr V
H. Q Q Q Q Q Q Q Q Q Q Q H
| | | | | |
o / / / / /

Gtrs I, II
~~ ~~ ~~ ~ ~~
H. E E Q E E Q E E Q E E Q E E Q E E Q Q
|-----------7-||--8-------7------|-------------7--||-----------------||
|-----------7-||o-8----10--------|-7----8------7-o||-7----8----------||
|-------------||--------7-9----9-|--------9-------||--------9-------||
|-------------||---------------7-|-9--------------||-9---------------||
|-------------||o----------------|------5-7------o||------5-7---/x--||
|-------------||-----------------|----------------||------------/x--||
H. E E Q E E Q E E Q E E Q E E Q E E Q Q


3/4
Gtrs I, II
PM| PM----| PM
a E E E a E E E E E 12x Q Q E E E E 4x E E Q E E
||-----------------------||-||-----------------||------------||
||o---------------------o||-||o---------------o||------------||
||-----------------------||-||-----------------||------------||
||-----------------------||-||----------2---5--||--------5-4-||
||o-7s8-----7s8---------o||-||o-4--2--4-0-4-3-o||-4------3-2-||
||--5s6-0-0-5s6-0-0-0-0--||-||--2--0--2---2----||-2----------||


Verses
$
4/4
PM| PM----| PM| PM----|
a E E E a E E E E E a E E E a E E E E E
||----------------------|---------------------|
||o---------------------|---------------------|
||----------------------|---------------------|
||----------------------|---------------------|
||o-7s8-----7s8---------|-7s8-----7s8---------|
||--5s6-0-0-5s6-0-0-0-0-|-5s6-0-0-5s6-0-0-0-0-|


PM| PM----| PM| PM|
a E E E a E E E E E a E E E a E E E E E
|---------------------|---------------------|
|---------------------|---------------------|
|---------------------|---------------------|
|---------------------|-----------------5-4-|
|-7s8-----7s8---------|-7s8-----7s8-----3-2-|
|-5s6-0-0-5s6-0-0-0-0-|-5s6-0-0-5s6-0-0-----|


PM| PM----| PM| PM----|
a E E E a E E E E E a E E E a E E E E E
|---------------------|---------------------|
|---------------------|---------------------|
|---------------------|---------------------|
|---------------------|---------------------|
|-7s8-----7s8---------|-7s8-----7s8---------|
|-5s6-0-0-5s6-0-0-0-0-|-5s6-0-0-5s6-0-0-0-0-|


PM| PM----| PM| PM|
a E E E a E E E E E a E E E a E E E E E
|---------------------|----------------------|
|---------------------|----------------------|
|---------------------|----------------------|
|---------------------|-----------------5-4--|
|-7s8-----7s8---------|-7s8-----7s8-----3-2--|
|-5s6-0-0-5s6-0-0-0-0-|-5s6-0-0-5s6-0-0------|


PM| PM----| PM| PM----|
S S E E S S E E E E S S E E S S E E E E
|---------------------|---------------------|
|---------------------|---------------------|
|---------------------|---------------------|
|---------------------|---------------------|
|-2h4-----2h4---------|-2h4-----2h4---------|
|-2---2-2-2---2-2-2-2-|-2---2-2-2---2-2-2-2-|


PM| PM----| PM| PM----|
S S E E S S E E E E S S E E S S E E E E
|---------------------|----------------------||
|---------------------|----------------------||
|---------------------|----------------------||
|---------------------|----------------------||
|-2h4-----2h4---------|-2h4-----2h4----------||
|-2---2-2-2---2-2-2-2-|-2---2-2-2---2-2-2-2--||


Chorus
PM------------|
Q E E Q E E E E E E E E E E
|---------------|-----------------|
|---------------|-----------------|
|---------------|-----------------|
|-6----5-4----6-|-2-2-2-2-2-2-2-2-|
|-4----3-2----4-|-0-0-0-0-0-0-0-0-|
|---------------|-----------------|


PM--------|
Q E E Q E E E E E E E E S E.
|---------------|--------------------|
|---------------|--------------------|
|---------------|--------------------|
|-6----5-4----6-|-2-2-2-2-2-2--------|
|-4----3-2----4-|-0-0-0-0-0-0-2-2tr3-|
|---------------|--------------------|


PM| PM----| PM| PM----| PM------------|
S S E E S S E E E E S S E E S S E E E E Q E E Q E E E E E E E E E E
|---------------------|---------------------|---------------|-----------------|
|---------------------|---------------------|---------------|-----------------|
|---------------------|---------------------|---------------|-----------------|
|---------------------|---------------------|-6----5-4----6-|-2-2-2-2-2-2-2-2-|
|-2h4-----2h4---------|-2h4-----2h4---------|-4----3-2----4-|-0-0-0-0-0-0-0-0-|
|-2---2-2-2---2-2-2-2-|-2---2-2-2---2-2-2-2-|---------------|-----------------|


1.
To Coda
PM------------| PM
Q E E Q E E E E E E E E E E Q Q E E E E
|----------------|-----------------|---------------|
|----------------|-----------------|---------------|
|----------------|-----------------|---------------|
|-6----5-4----6--|-2-2-2-2-2-2-2-2-|---------2---5-|
|-4----3-2----4--|-0-0-0-0-0-0-0-0-|-4--2--4-0-4-3-|
|----------------|-----------------|-2--0--2---2---|


2.
PM PM PM PM------------|
Q Q E E E E Q Q E E E E Q Q E E E E E E E E E E E E
|---------------|---------------|----------------||-----------------|
|---------------|---------------|---------------o||-----------------|
|---------------|---------------|----------------||-----------------|
|---------2---5-|---------2---5-|---------2---5--||-2-2-2-2-2-2-2-2-|
|-4--2--4-0-4-3-|-4--2--4-0-4-3-|-4--2--4-0-4-3-o||-0-0-0-0-0-0-0-0-|
|-2--0--2---2---|-2--0--2---2---|-2--0--2---2----||-----------------|


PM PM PM----| PM--------|
E E E E E E E E S S S S E S S S S S S E S S 4x
||------------------|------------------------------||
||o-----------------|-----------------------------o||
||--9-8-7---5---4---|------------------------------||
||--9-8-7---5---4-5-|---------5-------------5------||
||o-7-6-5---3---2-5-|---------5-------------5-----o||
||--------6-3-4-2-3-|-0-0-0-0---0-0-0-0-0-0---0-0--||


PM----| PM--------| PM---
S S S S E S S S S S S E S S
|-----------------------------|
|-----------------------------|
|-----------------------------|
|---------5-------------5-----|
|-3-3-3-3-3-3-3-3-3-3-3-3-3-3-|
|-----------------------------|


-------| PM--------| PM----------| PM--------| PM|
S S S S E S S S S S S E S S S S S S E S S S S S S E S S
|-----------------------------|-----------------------------|
|-----------------------------|-----------------------------|
|-----------------------------|-----------------------------|
|---------4-------------4-----|---------3-------------3-----|
|-2-2-2-2-2-2-2-2-2-2-2-2-2-2-|-1-1-1-1-1-1-1-1-1-1-1-1-1-1-|
|-----------------------------|-----------------------------|


PM----| PM--------| PM---
S S S S E S S S S S S E S S
|-----------------------------|
|-----------------------------|
|-----------------------------|
|---------2-------------2-----|
|-0-0-0-0-0-0-0-0-0-0-0-0-----|
|-------------------------1-1-|


-------| PM--------| PM----------| PM--------| PM|
S S S S E S S S S S S E S S S S S S E S S S S S S E S S
|-----------------------------|-----------------------------|
|-----------------------------|-----------------------------|
|-----------------------------|-----------------------------|
|-----------------------------|-----------------------------|
|---------3-------------3-----|---------5-------------8-----|
|-1-1-1-1-1-1-1-1-1-1-1-1-1-1-|-3-3-3-3-3-3-3S6-6-6-6-6-6-6-|


PM PM PM----| PM--------|
E E E E E E E E S S S S E S S S S S S E S S 3x
||------------------|------------------------------||
||o-----------------|-----------------------------o||
||--9-8-7---5---4---|------------------------------||
||--9-8-7---5---4-5-|---------5-------------5------||
||o-7-6-5---3---2-5-|---------5-------------5-----o||
||--------6-3-4-2-3-|-0-0-0-0---0-0-0-0-0-0---0-0--||


2/4 4/4
E E E E W +W W +W
|---------|----------|------------|----------|--------||
|---------|----------|------------|----------|--------||
|-9-8-7---|-5--------|-(5)--------|-4--------|-(4)----||
|-9-8-7---|-5--------|-(5)--------|-4--------|-(4)----||
|-7-6-5-0-|-3--------|-(3)--------|-2--------|-(2)----||
|---------|----------|------------|----------|--------||


PM| PM|
H. E E H. E E Q E E H +W
||--------------|-------------|-------------|---------||
||o-------------|-------------|-------------|--------o||
||--------------|-5-----------|-------------|---------||
||--------------|-5-----------|-5s=7---7----|-(7)-----||
||o-2-----------|-3-----------|-5--5---7----|-(7)----o||
||--0-------0-3-|---------0-2-|-3s=5---5----|-(5)-----||


Guitar Solo
Gtr III
T T T T T T T T T T T T
|------7------| |------7-------| |--------9:8---------|
S S S S S S S S S S S S S S T T T T T T T T T T T T T T T T T
|-----------------------------------------------------------------------------|
|-----------------------------------------------------------------------------|
|-12p9p5-12p5h9-12p5-12p9p5-12p9-12p5h9-12p9p5-12p9-12p5h9-12p9p5---12p9p5-12-|
|-----------------------------------------------------------------------------|
|-----------------------------------------------------------------------------|
|-----------------------------------------------------------------------------|
|
| Gtr I
| PM---------|
| H. E E
|-----------------------------------------------------------------------------|
|-----------------------------------------------------------------------------|
|-----------------------------------------------------------------------------|
|-----------------------------------------------------------------------------|
|--2--------------------------------------------------------------------------|
|--0---------------------------------------------------0----------3-----------|


T T T T T T T T
|-----6-----|
+T T T T T T T T S S S S S S T T T T T T T T T T T T T T T T
|--------------------------------------------------------------------------|
|--------------------------------------------------------------------------|
|-(12)p9p5h9-12p5-12p9p5h9-12p5h9-12p5h9-12p9p5h9-12p9p5h9-12p9p5h9-12p9p==|
|--------------------------------------------------------------------------|
|--------------------------------------------------------------------------|
|--------------------------------------------------------------------------|
|
| PM-------|
| H. E E
|--------------------------------------------------------------------------|
|--------------------------------------------------------------------------|
|---5----------------------------------------------------------------------|
|---5----------------------------------------------------------------------|
|---3----------------------------------------------------------------------|
|------------------------------------------------------0--------2----------|


T T T T T T T T T
|-------7-------| |------7------| |------7------|
T T T T T T T T S S S S S S S S S S S S S S S S S S S S S
|----------------------------------------------------------------------|
|----------------------------------------------------------------------|
|-5-12p9-12p9p5h9-12p5h9-12p9p==5-12p9p5h9-12p9p5-12p9p5h9-12p9p5-12p9-|
|----------------------------------------------------------------------|
|----------------------------------------------------------------------|
|----------------------------------------------------------------------|
|
| Q E E H
|----------------------------------------------------------------------|
|----------------------------------------------------------------------|
|----------------------------------------------------------------------|
|-5s=================7-----------------7-------------------------------|
|-5------------------5-----------------7-------------------------------|
|-3s=================5-----------------5-------------------------------|


T T T T T
|-----6-----| |3-|
+T T T T T T T T S S S S S S S E +Q.
|-----------------------------------------------|
|-----------------------------------------------|
|-(9)p5-12p9p5h9-12p9p5-12p9p5-12p9p5-14-(14)---|
|-----------------------------------------------|
|-----------------------------------------------|
|-----------------------------------------------|
|
| +W
|-----------------------------------------------|
|-----------------------------------------------|
|-----------------------------------------------|
|-(7)-------------------------------------------|
|-(7)-------------------------------------------|
|-(5)-------------------------------------------|


Q Q +E Q E
|-------------------------------|
|-------------------------------|
|-/14b16--14b16===(14)r-14---12-|
|-------------------------------|
|-------------------------------|
|-------------------------------|
|
| PM|
| H. E E
|-------------------------------|
|-------------------------------|
|-------------------------------|
|-------------------------------|
|---2---------------------------|
|---0----------------------0--3-|


~~~ ~~~~
|--3--|
H E E S S S E E E E E a Q +Q
|--------------------------|--------------------------|
|--------------------------|--------------------------|
|-11-----11-12-11h12p11----|--------------------------|
|-----------------------14-|-12----12-12-12s14--(14)--|
|--------------------------|----14--------------------|
|--------------------------|--------------------------|
|
| PM------|
| H. E E Q E E H
|--------------------------|--------------------------|
|--------------------------|--------------------------|
|--5-----------------------|--------------------------|
|--5-----------------------|--5s====7--------7--------|
|--3-----------------------|--5-----5--------7--------|
|---------------0--------2-|--3s====5--------5--------|


~~~~
+Q. +E Q E. S E E E E E E E E E E E E E E E E
|-----------------------|-----------------|----------------------|
|--------------------/5-|-5s7-7-7-7s8-8-8-|-8s10-10-10-10s8-8s10-|
|-----------------------|-----------------|----------------------|
|-(14)---(14)/-------/2-|-2s4-4-4-4s5-5-5-|-5s=7--7--7--7s5-5s=7-|
|--------------xs=x----|-----------------|----------------------|
|-----------------------|-----------------|----------------------|
|
| PM| PM|
| +W H. E E H. E E
|-----------------------|-----------------|----------------------|
|-----------------------|-----------------|----------------------|
|-----------------------|-----------------|-5--------------------|
|--(7)------------------|-----------------|-5--------------------|
|--(7)------------------|-2---------------|-3--------------------|
|--(5)------------------|-0-----------0-3-|-----------------0--2-|


E E E E E E E E E E E E Q E E
|-------------------------|------------------------|
|-10s12-12s10-10s12-12s13-|-13s=15-15s17-17--------|
|-------------------------|------------------------|
|--7s=9--9s=7--7s=9--9s10-|-10s=12-12s14-14--17-19-|
|-------------------------|------------------------|
|-------------------------|------------------------|
|
| Q E E H +W
|-------------------------|------------------------|
|-------------------------|------------------------|
|-------------------------|------------------------|
|--5s====7-----7----------|-(7)--------------------|
|--5-----5-----7----------|-(7)--------------------|
|--3s====5-----5----------|-(5)--------------------|


~~~
a H +E E E +S S
|----------------------------------|
|----------------------------------|
|----------------19-21b23r(21)p19--|
|-19s21-----(21)-------------------|
|----------------------------------|
|----------------------------------|
|
| PM---|
| H. E E
|----------------------------------|
|----------------------------------|
|----------------------------------|
|----------------------------------|
|-----2----------------------------|
|-----0--------------0------3------|


~~~~~~~ ~~~~~~~~~~~~ ~~~~~
E E E E +E E E S S Q E E +E S S Q
|-------------------------------|--------19--------------------22b24--|
|-------------------------------|-----------22b24==(22)r-22p19--------|
|-21--19----19-(19)----19-19h21-|-21b23-------------------------------|
|--------21---------21----------|-------------------------------------|
|-------------------------------|-------------------------------------|
|-------------------------------|-------------------------------------|
|
| PM|
| H. E E Q E E H
|-------------------------------|-------------------------------------|
|-------------------------------|-------------------------------------|
|--5----------------------------|-------------------------------------|
|--5----------------------------|--5s=====7----------7----------------|
|--3----------------------------|--5------5----------7----------------|
|-----------------------0--2----|--3s=====5----------5----------------|


S S T T S E S S E a +E +E S S
|-22--19-19-22-19-19----19-------------------------------14--||
|--------------------22----22b24r(22)b24==(22)-(22)r-17-----||
|------------------------------------------------------------||
|------------------------------------------------------------||
|------------------------------------------------------------||
|------------------------------------------------------------||
|
| +W
|------------------------------------------------------------||
|------------------------------------------------------------||
|------------------------------------------------------------||
|-(7)--------------------------------------------------------||
|-(7)--------------------------------------------------------||
|-(5)--------------------------------------------------------||


S S S S S S S S S S S S S S S S
|-17p14----14-17p14----14-------------17p14-------|
|-------17----------17-------14-17p14-------17-14-|
|-------------------------16----------------------|
|-------------------------------------------------|
|-------------------------------------------------|
|-------------------------------------------------|
|
| PM---| PM---|
| Q E E Q E E
|-------------------------------------------------|
|-------------------------------------------------|
|-------------------------------------------------|
|-------------------------------------------------|
|--4-----------4-----4-----4----------------------|
|--2-----------2-----2-----2-----------2-----4----|


|---3---|
S S S S S S S S S S S S S S S S S S S S S S S S a E E E E E
|----------------------------------------------------|---------------------------------------------|
|-------14-17p14-------------------------------------|---------------------------------------------|
|-16b18----------16-14----14-16p14-------------------|-------------------------------------14---16-|
|----------------------16----------16-14----14-16p14-|-------------------------------14-16---------|
|----------------------------------------16----------|-16-14-14-12-14-12----12-14s16---------------|
|----------------------------------------------------|-------------------14------------------------|
|
| PM---| PM---| PM PM---|
| Q E E Q E E Q E E Q E E
|----------------------------------------------------|---------------------------------------------|
|----------------------------------------------------|---------------------------------------------|
|----------------------------------------------------|---------------------------------------------|
|--7--------------7-----7-----7----------------------|--7S==========9-----9--------9-----9----9----|
|--5--------------5-----5-----5----------------------|--7S==========9-----7--------9-----9----9----|
|-----------------------------------------2-----4----|--5S==========7-----7--------7-----7----7----|


~~
S S E E E Q E E E. +S E. +S E +E E E
|--------------------------|---------------------------------------17b19==|
|-----------------------14-|-17b19r(17)-17b19r==(17)-17b19r(17)-14--------|
|-16-14----14-16-14--16----|----------------------------------------------|
|-------16-----------------|----------------------------------------------|
|--------------------------|----------------------------------------------|
|--------------------------|----------------------------------------------|
|
| PM| PM| PM---| PM|
| Q E E Q E E Q E E Q E E
|--------------------------|----------------------------------------------|
|--------------------------|----------------------------------------------|
|--------------------------|----------------------------------------------|
|--9--------9--9--9---9--9-|----------------------------------------------|
|--9--------9--9--9---9--9-|--4----------4----4-------4-------------------|
|--7--------7--7--7---7--7-|--2----------2----2-------2----------2--4-----|


~~~~~
+E E E E Q E E
|-(17)r-17-17b19-17-17b19--17-14-|
|--------------------------------|
|--------------------------------|
|--------------------------------|
|--------------------------------|
|--------------------------------|
|
| PM---| PM|
| Q E E Q E E
|--------------------------------|
|--------------------------------|
|--------------------------------|
|---7-------7-----7--7-----------|
|---5-------5-----5--5-----------|
|---------------------------2--4-|


G
S S S S S S S S S S S S S S S S
|-17p14-14-14-17p14----------------------------------|
|-------------------17-14-------14-17p14-------------|
|-------------------------16b18----------16-14----14-|
|----------------------------------------------16----|
|----------------------------------------------------|
|----------------------------------------------------|
|
| PM PM---|
| Q E E Q E E
|----------------------------------------------------|
|----------------------------------------------------|
|----------------------------------------------------|
|--7S==========9-----9-----9--------------9-----9----|
|--7S==========9-----7-----9--------------9-----9----|
|--5S==========7-----7-----7--------------7-----7----|


trs III, IV Gtr III
|-----5-----|
E +E Q Q Q S S S S S S S S S S S S S S S S S
|-19b21==(19)r-17b17.5------------14-|-17p14-14-14-14-17p14-19p14-17-14----14-17-17-19p14-|
|------------------------19--/17----|----------------------------------17----------------|
|-16b18==(16)r-14b14.5---------------|----------------------------------------------------|
|------------------------16---------|----------------------------------------------------|
|------------------------------------|----------------------------------------------------|
|------------------------------------|----------------------------------------------------|
| E +E Q Q E E
|
| PM-----| PM| PM---| PM---|
| Q E E Q E E Q E E Q E E
|------------------------------------|----------------------------------------------------|
|------------------------------------|----------------------------------------------------|
|------------------------------------|----------------------------------------------------|
|--9------------9------9--9-----9--9-|----------------------------------------------------|
|--9------------9------9--9-----9--9-|--4--------------4-----4-----4----------------------|
|--7------------7------7--7-----7--7-|--2--------------2-----2-----2-----------2-----4----|


|-----5-----|
S S S S S S S S S S S S S S S S S
|-17p14----14-14-17-17-19p14-17p14----14-17-17-19p14-|
|-------17-------------------------17----------------|
|----------------------------------------------------|
|----------------------------------------------------|
|----------------------------------------------------|
|----------------------------------------------------|
|
| PM---| PM---|
| Q E E Q E E
|----------------------------------------------------|
|----------------------------------------------------|
|----------------------------------------------------|
|--7--------------7-----7-----7----------------------|
|--5--------------5-----5-----5----------------------|
|-----------------------------------------2-----4----|


|--3--| |---3---| |--3--| |---3---| |--3--|
E E E E E E E E E E E E E E E E E Q E E
|-17-14----14-----------------------------|---------------------------|
|-------17----17---14-17-14----14---------|---------------------------|
|---------------------------16----16---14-|-16-14----14-16------------|
|-----------------------------------------|-------16-------14--14-16--|
|-----------------------------------------|---------------------------|
|-----------------------------------------|---------------------------|
|
| PM PM---| PM| PM|
| Q E E Q E E Q E E Q E E
|-----------------------------------------|---------------------------|
|-----------------------------------------|---------------------------|
|-----------------------------------------|---------------------------|
|--7S=======9----9-----9--------9----9----|--9--------9--9--9---9--9--|
|--7S=======9----7-----9--------9----9----|--9--------9--9--9---9--9--|
|--5S=======7----7-----7--------7----7----|--7--------7--7--7---7--7--|


|--3--|
E E E E S S S E E E E E S S E E E E E
|-------------------------------|----14-15p14----------------|
|-------14-15-14h15p14----14-15-|-17----------17-15-14-15-17-|
|-14-16----------------16-------|----------------------------|
|-------------------------------|----------------------------|
|-------------------------------|----------------------------|
|-------------------------------|----------------------------|
|
| PM| PM| PM---| PM|
| Q E E Q E E Q E E Q E E
|-------------------------------|----------------------------|
|-------------------------------|----------------------------|
|-------------------------------|----------------------------|
|-------------------------------|--7-----7-----7--7----------|
|--4-----4--4--4----------------|--5-----5-----5--5----------|
|--2-----2--2--2-----------2--4-|-----------------------2--4-|


|--3--| |---3---| |--3--|
E E E E E E E E E S S S S
|-14-15-17-15-17---19-17-19-20-19-20-22-22b24===|
|-----------------------------------------------|
|-----------------------------------------------|
|-----------------------------------------------|
|-----------------------------------------------|
|-----------------------------------------------|
|
| PM PM---|
| Q E E Q E E
|-----------------------------------------------|
|-----------------------------------------------|
|-----------------------------------------------|
|--7S=======9----9-----9--------9-----9---------|
|--7S=======9----7-----9--------9-----9---------|
|--5S=======7----7-----7--------7-----7---------|


Gtr III Gtrs III, IV
|--3--| |---3----|
+Q Q Q S S E S S S S S S S S E E E E S S E
|-(22)r--22b24---22b24--17-19-21-||-21-19-17-15-19-17-15-14-17-15-12-15-12-13-14-|
|-----------------------15-17-19-||-21-19-17-15-19-17-15-13-17-15-12-15-13-12-13-|
|--------------------------------||----------------------------------------------|
|--------------------------------||----------------------------------------------|
|--------------------------------||----------------------------------------------|
|--------------------------------||----------------------------------------------|
| H. S S E S S S S S S S S E E E E S S E
| |--3--| |---3----|
|
| PM---| PM---|
| Q E E Q E E E E E E H
|--------------------------------||----------------------------------------------|
|--------------------------------||----------------------------------------------|
|--------------------------------||----------------------------------------------|
|---9-----9----9--9------9-----9-||--7-----7-----7-------------------------------|
|---9-----9----9--9------9-----9-||--7-----7-----7-------------------------------|
|---7-----7----7--7------7-----7-||--5-----5-----5-------------------------------|


|---3---| |--3--| |--3--| |---3----|
E E E E E E E E E E E S S
|-17-15---12-15-12----14-12----12-----------|
|-17-15---12-15-13-15-13-12-13----15-13p12--|
|------------------12-------12-16-14-12p11--|
|-------------------------------------------|
|-------------------------------------------|
|-------------------------------------------|
| E E E E E E E E E E E S S
| |---3---| |--3--| |--3--| |---3----|
|
| E E Q H
|-------------------------------------------|
|-------------------------------------------|
|-------------------------------------------|
|--5----5-----------------------------------|
|--5----3-----------------------------------|
|--3----3-----------------------------------|


3/4 4/4
7____/
a +W +H. E E E E E E E E
|------------------|-----------||-12------12---12------12-12------12---12------12-|
|------------------|-----------||-15b17--------15b17------15b17--------15b17------|
|-10---(10)--------|-(10)------||-------------------------------------------------|
|-10---(10)--------|-(10)------||-------------------------------------------------|
|--8----(8)--------|--(8)------||-------------------------------------------------|
|------------------|-----------||-------------------------------------------------|
|
| PM----------------| PM----------------|
| W +H. S S S S S S E S S S S S S E
|------------------|-----------||-------------------------------------------------|
|------------------|-----------||-------------------------------------------------|
|------------------|-----------||-------------------------------------------------|
|--------3---------|--(3)------||-------------------------------------------------|
|--------3---------|--(3)------||-----------------------5-----------------------5-|
|--------1---------|--(1)------||--0----0--0-0--0----0--3--0----0--0-0--0----0--3-|


E E E E E E E S S
|-12------12---12------12-12----12-12----12-12--|
|-15b17--------15b17------15b17----15b17--------|
|-----------------------------------------------|
|-----------------------------------------------|
|-----------------------------------------------|
|-----------------------------------------------|
|
| PM----------------|
| S S S S S S E E E Q
|-----------------------------------------------|
|-----------------------------------------------|
|-----------------------------------------------|
|--------------------------4-----5--4-----------|
|-----------------------5--2-----3--2-----------|
|--0----0--0-0--0----0--3-----------------------|


G
~~~~~~~~~~~~~~~~~~~~~~~~~~~
|--3--|
S S S S S S S S S S S S S S S S S Q Q Q. E
|-15-12-14-12----12----------------------------------|---------------------------------12-|
|-------------15----15p14p12-14-12-------------------|-15----------15--------15--------12-|
|----------------------------------14-12----12-14-12-|-14b16-------14b16-----14b16--------|
|----------------------------------------14----------|------------------------------------|
|----------------------------------------------------|------------------------------------|
|----------------------------------------------------|------------------------------------|
|
| PM------------| PM------------| PM---------------|
| S S S S S S E S S S S S S E S S S S S S E E E Q
|----------------------------------------------------|------------------------------------|
|----------------------------------------------------|------------------------------------|
|----------------------------------------------------|------------------------------------|
|----------------------------------------------------|------------------------4----5-4----|
|--------------------5--------------------------5----|---------------------5--2----3-2----|
|--0--0--0--0--0--0--3--------0--0--0--0--0--0--3----|--0----0-0-0--0----0-3--------------|


trs III, IV
|----3----| |----3----| |----3----| |----3----|
E E E E E E E E E E E E
|-16---14---12----------------16---14---12------------------|
|-16---14---12---16---14---12-16---14---12---16---14---12---|
|----------------15---13---11----------------15---13---11---|
|-----------------------------------------------------------|
|-----------------------------------------------------------|
|-----------------------------------------------------------|
| E E E E E E E E E E E E
| |----3----| |----3----| |----3----| |----3----|
|
| PM---------------| PM---------------|
| S S S S S S E S S S S S S E
|-----------------------------------------------------------|
|-----------------------------------------------------------|
|-----------------------------------------------------------|
|-----------------------------------------------------------|
|------------------------5---------------------------5------|
|--0-0----0----0--0-0----3-----0-0----0----0--0-0----3------|


|----3----| |----3----| |---3---| |--3--|
E E E E E E E E E E E E
|-17---16---14----------------17-16---14----------|
|-17---16---14---17---16---14-17-16---14-17-16-14-|
|----------------16---15---13------------16-15-13-|
|-------------------------------------------------|
|-------------------------------------------------|
|-------------------------------------------------|
| E E E E E E E E E E E E
| |----3----| |----3----| |---3---| |--3--|
|
| PM---------------|
| S S S S S S E E E Q
|-------------------------------------------------|
|-------------------------------------------------|
|-------------------------------------------------|
|------------------------------4----5-----4-------|
|------------------------5-----2----3-----2-------|
|--0-0----0----0--0-0----3------------------------|


|----3----| |----3----| |----3----| |----3----| |----3----| |----3----|
E E E E E E E E E E E E E E E E E E Q. E
|-19---17---16----------------21---19---17----------------|-22---21---19----------------22b24----8|
|-19---17---16---19---17---16-21---19---17---21---19---17-|-22---21---19---22---21---19-22b24--/10|
|----------------18---16---15----------------20---18---16-|----------------21---20---18-----------|
|---------------------------------------------------------|---------------------------------------|
|---------------------------------------------------------|---------------------------------------|
|---------------------------------------------------------|---------------------------------------|
| E E E E E E E E E E E E E E E E E E Q E E
| |----3----| |----3----| |----3----| |----3----| |----3----| |----3----|
|
| PM---------------| PM---------------| PM---------------|
| S S S S S S E S S S S S S E S S S S S S E E E Q
|---------------------------------------------------------|---------------------------------------|
|---------------------------------------------------------|---------------------------------------|
|---------------------------------------------------------|---------------------------------------|
|---------------------------------------------------------|----------------------------4----5---4-|
|------------------------5---------------------------5----|------------------------5---2----3---2-|
|--0-0----0----0--0-0----3-----0-0----0----0--0-0----3----|--0-0----0----0--0-0--3----------------|


S S S S S S S S S S S S S S S S
|-19p15----15-19p15----15-19p15----15-19p15----14-|
|-17-13-17-13-17-13-17-13-17-13-17-13-17-13-17-12-|
|-------14----------14----------14----------14----|
|-------------------------------------------------|
|-------------------------------------------------|
|-------------------------------------------------|
| S S S S S S S S S S S S S S S S
|
| PM------| PM------------| PM----
| S S S S E S S S S S S E S S
|-------------------------------------------------|
|-------------------------------------------------|
|-------------------------------------------------|
|--------------5-----------------------5----------|
|--3--3--3--3--3-----3--3--3--3--3--3--3-----3--3-|
|-------------------------------------------------|


S S S S S S S S S S S S S S S S
|-17p14----14-17p14----14-17p14----14-17p14----13-|
|-15-12-15-12-15-12-15-12-15-12-15-12-15-12-15-11-|
|-------12----------12----------12----------12----|
|-------------------------------------------------|
|-------------------------------------------------|
|-------------------------------------------------|
| S S S S S S S S S S S S S S S S
|
|----------| PM------------| PM|
| S S S S E S S S S S S E S S
|-------------------------------------------------|
|-------------------------------------------------|
|-------------------------------------------------|
|--------------4-----------------------4----------|
|--2--2--2--2--2-----2--2--2--2--2--2--2-----2--2-|
|-------------------------------------------------|


S S S S S S S S S S S S S S S S
|-17p13----13-17p13----13-17p13----13-17p13----12-|
|-15-11-15-11-15-11-15-11-15-11-15-11-15-11-15-10-|
|-------12----------12----------12----------12----|
|-------------------------------------------------|
|-------------------------------------------------|
|-------------------------------------------------|
| S S S S S S S S S S S S S S S S
|
| PM------| PM------------| PM----
| S S S S E S S S S S S E S S
|-------------------------------------------------|
|-------------------------------------------------|
|-------------------------------------------------|
|--------------3-----------------------3----------|
|--1--1--1--1--1-----1--1--1--1--1--1--1-----1--1-|
|-------------------------------------------------|


S S S S S S S S S S S S S S S S
|-16p12----12-16p12----12-16p12----12-16p12----12S=|
|-14-10-12-10-14-10-12-10-14-10-12-10-14-10-12-10S=|
|--------9-----------9-----------9-----------9-----|
|--------------------------------------------------|
|--------------------------------------------------|
|--------------------------------------------------|
| S S S S S S S S S S S S S S S S
|
|----------| PM------------| PM|
| S S S S E S S S S S S E S S
|--------------------------------------------------|
|--------------------------------------------------|
|--------------------------------------------------|
|--------------2-----------------------2-----------|
|--0--0--0--0--0-----0--0--0--0--0--0--0-----0--0--|
|--------------------------------------------------|


S S S S S S S S S S S S S S S S
|-19p15----15-19p15----15-19p15----15-19p15----14-|
|-17-13-17-13-17-13-17-13-17-13-17-13-17-13-17-12-|
|-------14----------14----------14----------14----|
|-------------------------------------------------|
|-------------------------------------------------|
|-------------------------------------------------|
| S S S S S S S S S S S S S S S S
|
| PM------| PM------------| PM----
| S S S S E S S S S S S E S S
|-------------------------------------------------|
|-------------------------------------------------|
|-------------------------------------------------|
|--------------5-----------------------5----------|
|--3--3--3--3--3-----3--3--3--3--3--3--3-----3--3-|
|-------------------------------------------------|


S S S S S S S S S S S S S S S S
|-17p14----14-17p14----14-17p14----14-17p14----13-|
|-15-12-15-12-15-12-15-12-15-12-15-12-15-12-15-11-|
|-------12----------12----------12----------12----|
|-------------------------------------------------|
|-------------------------------------------------|
|-------------------------------------------------|
| S S S S S S S S S S S S S S S S
|
|----------| PM------------| PM|
| S S S S E S S S S S S E S S
|-------------------------------------------------|
|-------------------------------------------------|
|-------------------------------------------------|
|--------------4-----------------------4----------|
|--2--2--2--2--2-----2--2--2--2--2--2--2-----2--2-|
|-------------------------------------------------|


S S S S S S S S S S S S S S S S
|-17p13----13-17p13----13-17p13----13-17p13----12-|
|-15-11-15-11-15-11-15-11-15-11-15-11-15-11-15-10-|
|-------12----------12----------12----------12----|
|-------------------------------------------------|
|-------------------------------------------------|
|-------------------------------------------------|
| S S S S S S S S S S S S S S S S
|
| PM------| PM------------| PM----
| S S S S E S S S S S S E S S
|-------------------------------------------------|
|-------------------------------------------------|
|-------------------------------------------------|
|--------------3-----------------------3----------|
|--1--1--1--1--1-----1--1--1--1--1--1--1-----1--1-|
|-------------------------------------------------|


S S S S S S S S S S S S S S S S
|-16p12----12-16p12----12-16p12----12-16p12----10-|
|-14-10-12-10-14-10-12-10-14-10-12-10-14-10-12-15-|
|--------9-----------9-----------9-----------9----|
|-------------------------------------------------|
|-------------------------------------------------|
|-------------------------------------------------|
| S S S S S S S S S S S S S S S S
|
|----------| PM------------| PM|
| S S S S E S S S S S S E S S
|-------------------------------------------------|
|-------------------------------------------------|
|-------------------------------------------------|
|--------------2-----------------------2----------|
|--0--0--0--0--0-----0--0--0--0--0--0--0-----8--8-|
|-------------------------------------------------|


S S S S S S S S S S S S S S S S
|-13p=8----8-13p8----8-13p8----8-13p8----10-|
|-18-13-10-8-10-8-10-8-10-8-10-8-10-8-10-10-|
|-------14---------9---------9---------9----|
|-------------------------------------------|
|-------------------------------------------|
|-------------------------------------------|
| S S S S S S S S S S S S S S S S
|
| PM------| PM----------| PM----
| S S S S E S S S S S S E S S
|-------------------------------------------|
|-------------------------------------------|
|------------10------------------10---------|
|------------10------------------10---------|
|--8--8--8-8--8----8-8--8-8--8-8--8----8--8-|
|-------------------------------------------|


S S S S S S S a S S S S S S S S S
|-15p10----10-15p10----10s13-18p13----13-18p13----15--|
|-12-10-12-10-12-10-12----13-15-13-15-13-15-13-15-15--|
|-------11----------11-------------14----------14-----|
|-----------------------------------------------------|
|-----------------------------------------------------|
|-----------------------------------------------------|
| S S S S S S S S S S S S S S S S
|
|----------| PM---------------| PM|
| S S S S E S S S S S S E S S
|-----------------------------------------------------|
|-----------------------------------------------------|
|-----------------------------------------3-----------|
|--------------5--------------------------3-----------|
|--------------5--------------1--1--1--1--1-----1--1--|
|--3--3--3--3--3-----3-----3--------------------------|


S S S S S S S S S S S S S S S S
|-20p15----15-20p15-20p15----15-20p15-20p15----15-|
|-20-15-17-15-20-15-20-15-17-15-20-15-20-15-17-15-|
|-------16----------------16----------------16----|
|-------------------------------------------------|
|-------------------------------------------------|
|-------------------------------------------------|
| S S S S S S S S S S S S S S S S
|
| PM------| PM------------| PM----
| S S S S E S S S S S S E S S
|-------------------------------------------------|
|-------------------------------------------------|
|-------------------------------------------------|
|--------------5-----------------------5----------|
|--3--3--3--3--3-----3--3--3--3--3--3--3-----3--3-|
|-------------------------------------------------|


S S S S S S S S S S S S S S S S
|-19p15----15-19p15-19p15----15-19p15-19p15----15-|
|-19-15-17-15-19-15-19-15-17-15-19-15-19-15-17-15-|
|-------16----------------16----------------16----|
|-------------------------------------------------|
|-------------------------------------------------|
|-------------------------------------------------|
| S S S S S S S S S S S S S S S S
|
|----------| PM------------| PM|
| S S S S E S S S S S S E S S
|-------------------------------------------------|
|-------------------------------------------------|
|-------------------------------------------------|
|--------------4-----------------------4----------|
|--2--2--2--2--2-----2--2--2--2--2--2--2-----2--2-|
|-------------------------------------------------|


S S S S S S S S S S S S S S S S
|-18p15----15-18p15-18p15----15-18p15-18p15----15-|
|-18-15-17-15-18-15-18-15-17-15-18-15-18-15-17-15-|
|-------16----------------16----------------16----|
|-------------------------------------------------|
|-------------------------------------------------|
|-------------------------------------------------|
| S S S S S S S S S S S S S S S S
|
| PM------| PM------------| PM----
| S S S S E S S S S S S E S S
|-------------------------------------------------|
|-------------------------------------------------|
|-------------------------------------------------|
|--------------3-----------------------3----------|
|--1--1--1--1--1-----1--1--1--1--1--1--1-----1--1-|
|-------------------------------------------------|


S S S S S S S S S S S S S S E
|-17p15----15-17p15-17p15----15-17p15-17p15-17---|
|-17-15-17-15-17-15-17-15-17-15-17-15-17-15-17---|
|-------16----------------16----------------------|
|-------------------------------------------------|
|-------------------------------------------------|
|-------------------------------------------------|
| S S S S S S S S S S S S S S E
|
|----------| PM------------| PM-|
| S S S S E S S S S S S E S S
|-------------------------------------------------|
|-------------------------------------------------|
|-------------------------------------------------|
|--------------2-----------------------2----------|
|--0--0--0--0--0-----0--0--0--0--0--0--0----------|
|--------------------------------------------1--1-|


S S S S S S S S S S S S S S S S
|-13p8----8-13p8-13p8----8-13p8-13p8----8-|
|-10-8-10-8-10-8-10-8-10-8-10-8-10-8-10-8-|
|-------9--------------9--------------9---|
|-----------------------------------------|
|-----------------------------------------|
|-----------------------------------------|
| S S S S S S S S S S S S S S S S
|
| PM-----| PM----------| PM---
| S S S S E S S S S S S E S S
|-----------------------------------------|
|-----------------------------------------|
|-----------------------------------------|
|-----------------------------------------|
|------------3-------------------3--------|
|--1-1--1-1--1----1-1--1-1--1-1--1----1-1-|


S S S S S S S S S S S S S S S S
|-15p10----10-15p10----12-18p13----13-18p13----13-|
|-12-10-12-10-12-10-12-10-15-13-15-13-15-13-15-13-|
|-------11----------11----------14----------14----|
|-------------------------------------------------|
|-------------------------------------------------|
|-------------------------------------------------|
| S S S S S S S S S S S S S S S S
|
|----------| PM---------------|
| S S S S E S S S S S S E E
|-------------------------------------------------|
|-------------------------------------------------|
|-------------------------------------------------|
|--------------5----------------------------10----|
|--------------5----------------------------10----|
|--3--3--3--3--3-----3--3--6--6--6--6--6-----8----|


E E E E H W
|-12----13----12----13------------|-----------------------------|
|-15b17-16b18-15b17-16b18---------|-----------------------------|
|---------------------------------|-----------------------------|
|---------------------------------|-----------------------------|
|---------------------------------|-----------------------------|
|---------------------------------|-----------------------------|
|
| PM PM PM----| PM--------|
| E E E E E E E E S S S S E S S S S S S E S S
|---------------------------------|-----------------------------|
|---------------------------------|-----------------------------|
|--9-----8-----7----------5---4---|-----------------------------|
|--9-----8-----7----------5---4-5-|---------5-------------5-----|
|--7-----6-----5----------3---2-5-|---------5-------------5-----|
|--------------------6----3-4-2-3-|-0-0-0-0---0-0-0-0-0-0---0-0-|


Gtrs I, II
PM PM PM----| PM--------|
E E E E E E E E S S S S E S S S S S S E S S 3x
||------------------|------------------------------||
||o-----------------|-----------------------------o||
||--9-8-7---5---4---|------------------------------||
||--9-8-7---5---4-5-|---------5-------------5------||
||o-7-6-5---3---2-5-|---------5-------------5-----o||
||--------6-3-4-2-3-|-0-0-0-0---0-0-0-0-0-0---0-0--||


PM----| PM--------| PM---
S S S S E S S S S S S E S S
|-----------------------------|
|-----------------------------|
|-----------------------------|
|---------5-------------5-----|
|-3-3-3-3-3-3-3-3-3-3-3-3-3-3-|
|-----------------------------|


-------| PM--------| PM----------| PM--------| PM|
S S S S E S S S S S S E S S S S S S E S S S S S S E S S
|-----------------------------|-----------------------------|
|-----------------------------|-----------------------------|
|-----------------------------|-----------------------------|
|---------4-------------4-----|---------3-------------3-----|
|-2-2-2-2-2-2-2-2-2-2-2-2-2-2-|-1-1-1-1-1-1-1-1-1-1-1-1-1-1-|
|-----------------------------|-----------------------------|


PM----| PM--------| PM---
S S S S E S S S S S S E S S
|-----------------------------|
|-----------------------------|
|-----------------------------|
|---------2-------------2-----|
|-0-0-0-0-0-0-0-0-0-0-0-0-----|
|-------------------------1-1-|


-------| PM--------| PM----------| PM--------| PM|
S S S S E S S S S S S E S S S S S S E S S S S S S E S S
|-----------------------------|-----------------------------|
|-----------------------------|-----------------------------|
|-----------------------------|-----------------------------|
|-----------------------------|-----------------------------|
|---------3-------------3-----|---------5-------------8-----|
|-1-1-1-1-1-1-1-1-1-1-1-1-1-1-|-3-3-3-3-3-3-3S6-6-6-6-6-6-6-|


PM PM PM----| PM--------|
E E E E E E E E S S S S E S S S S S S E S S 3x
||------------------|------------------------------||
||o-----------------|-----------------------------o||
||--9-8-7---5---4---|------------------------------||
||--9-8-7---5---4-5-|---------5-------------5------||
||o-7-6-5---3---2-5-|---------5-------------5-----o||
||--------6-3-4-2-3-|-0-0-0-0---0-0-0-0-0-0---0-0--||


2/4 4/4
PM
E E E E W +W +W +H +E E Q
|---------|----------|------------|------------|--------------------|
|---------|----------|------------|------------|--------------------|
|---------|----------|------------|------------|--------------------|
|-9S8S7---|-5--------|-(5)--------|-(5)--------|-(5)----(5)---------|
|-7S6S5-0-|-3--------|-(3)--------|-(3)--------|-(3)----(3)-0-------|
|---------|----------|------------|------------|--------------/x---|


D.S. al Coda
3/4
PM| PM----| PM| PM|
a E E E a E E E E E 11x a E E E a E E E E E E E Q E E
||-----------------------||---------------------|-------------||
||o---------------------o||---------------------|-------------||
||-----------------------||---------------------|-------------||
||-----------------------||-----------------5-4-|-3------5-4--||
||o-7s8-----7s8---------o||-7s8-----7s8-----3-2-|-1------3-2--||
||--5s6-0-0-5s6-0-0-0-0--||-5s6-0-0-5s6-0-0-----|-------------||


&
4/4
PM------------| PM
E E E E E E E E Q Q E E E E 4x
|-----------------||-----------------||
|-----------------||o---------------o||
|-----------------||-----------------||
|-2-2-2-2-2-2-2-2-||----------2---5--||
|-0-0-0-0-0-0-0-0-||o-4--2--4-0-4-3-o||
|-----------------||--2--0--2---2----||


PM PM
Q Q E E E E +W Q Q E E E E +W
||----------------|------------|---------------|---------||
||o---------------|------------|---------------|--------o||
||----------------|------------|---------------|---------||
||----------2---5-|-(5)--------|---------2-----|---------||
||o-4--2--4-0-4-3-|-(3)--------|-4--2--4-0-4-2-|-(2)----o||
||--2--0--2---2---|------------|-2--0--2---2-0-|-(0)-----||


PM PM| PM| PM|
Q Q E E E E +E S S E S S E S S S E.
||----------------|--------------------------|
||o---------------|--------------------------|
||----------------|--------------------------|
||----------2---5-|-(5)-----5-----5-----5s4--|
||o-4--2--4-0-4-3-|-(3)-3-3-3-3-3-3-3-3-3s2--|
||--2--0--2---2---|--------------------------|


PM PM------------|
Q Q E E E E +H S S S S S S S S
|---------------|--------------------------||
|---------------|-------------------------o||
|---------------|--------------------------||
|---------2-----|--------------------------||
|-4--2--4-0-4-2-|-(2)---------------------o||
|-2--0--2---2-0-|-(0)----0-0-0-0-0-0-0-0---||


Gtrs I, II
Q Q Q Q Q Q E E Q
||-----------------|-----------------||
||o----------------|----------------o||
||-----------------|-----------------||
||-----------------|-----------------||
||o-2------2-------|-2------2-2-2---o||
||--0------0-------|-0------0-0-0----||
|
| Gtrs III, IV
| ~ ~~ ~~
| E E Q E E Q E E Q E E Q
||----7-8-------7--|-----------------||
||o---7-8----10----|-----7----8-----o||
||------------7-9--|---9--------9---||
||-----------------|---7-9-----------||
||o----------------|----------5-7--o||
||-----------------|-----------------||
E E Q E E Q E E Q E E Q


Duration Legend
---------------
W - whole; H - half; Q - quarter; E - 8th; S - 16th; T - 32nd; X - 64th; a - acciaccatura
+ - note tied to previous; . - note dotted; .. - note double dotted
Uncapitalized letters represent notes that are staccato (1/2 duration)
Irregular groupings are notated above the duration line
Duration letters will always appear directly above the note/fret number it represents the
duration for. Duration letters with no fret number below them represent rests. Multi-
bar rests are notated in the form Wxn, where n is the number of bars to rest for. Low
melody durations appear below the staff

Tablature Legend
----------------
h - hammer-on
p - pull-off
b - bend
pb - pre-bend
r - bend release (if no number after the r, then release immediately)
/ - slide into or out of (from/to "nowhere")
s - legato slide
S - shift slide
- natural harmonic
[n] - artificial harmonic
n(n) - tapped harmonic
~ - vibrato
tr - trill
T - tap
TP - trem. picking
PM - palm muting
n/ - tremolo bar dip; n = amount to dip
n - tremolo bar down
n/ - tremolo bar up
/n - tremolo bar inverted dip
= - hold bend; also acts as connecting device for hammers/pulls
- volume swell (louder/softer)
x - on rhythm slash represents muted slash
o - on rhythm slash represents single note slash

Misc Legend
-----------
| - bar
|| - double bar
||o - repeat start
o|| - repeat end
*| - double bar (ending)
: - bar (freetime)
$ - Segno
& - Coda
Tempo markers - = BPM(8/16=s8/s16), where s8 = swing 8ths, s16 = swing 16ths


This took freakin ages to write, aprox. 12-14 hours!
Tunning: Standard (E A D G B e)
Ride The Lightning by
Metallica


[Intro]

e|----------------------------------------------|
B|-----12-13~--------12~------------------------|
G|---------------14------------11~----12--------|
D|--------------------------14-----------14~----| x 4
A|----------------------------------------------|
E|--x---------x----------x---------x------------|

Rhythm
e|----------------------------------------------|
B|----------------------------------------------|
G|-----11-12~-----------------------------------|
D|---------------12-14~-------------------------| x 4
A|-------------------------12-14~---------------|
E|--x---------x---------x---------x--10-12~-----|

After 4th time
e|-------------|
B|-------------|
G|-------------|
D|-------------| x 1
A|--7\---------|
E|--7\---------|

Rhythm
e|-------------|
B|-------------|
G|-------------|
D|-------------| x 1
A|-------------|
E|--12\--------|

Lead and Rhythm
e|-----------------------------|
B|-----------------------------|
G|-----------------------------|
D|-----------------------------| x 12
A|--7/8-------7/8--------------|
E|--5/6--0-0--5/6--0-0-0-0-----|

Lead and Rhythm
e|-----------------------------|
B|-----------------------------|
G|-----------------------------|
D|--------2---5----------------| x 4
A|--4-2-4-0-4-3----------------|
E|--2-0-2---2------------------|

Lead and Rhythm
e|----------------|
B|----------------|
G|----------------|
D|-----5-4--------| x 1
A|--4--3-2--------|
E|--2-------------|


Lead and Rhythm
e|-----------------------------|
B|-----------------------------|
G|-----------------------------|
D|-----------------------------| x 3
A|--7/8-------7/8--------------|
E|--5/6--0-0--5/6--0-0-0-0-----|

e|-----------------------------|
B|-----------------------------|
G|-----------------------------|
D|-----------------------------| x 1
A|--7/8-------7/8-------10-9---|
E|--5/6--0-0--5/6--0-0---8-7---|


Lead and Rhythm
e|-----------------------------|
B|-----------------------------|
G|-----------------------------|
D|-----------------------------| x 3
A|--7/8-------7/8--------------|
E|--5/6--0-0--5/6--0-0-0-0-----|

e|-----------------------------|
B|-----------------------------|
G|-----------------------------|
D|-----------------------------| x 1
A|--7/8-------7/8-------10-9---|
E|--5/6--0-0--5/6--0-0---8-7---|


Lead and Rhythm
e|---------------------------|
B|---------------------------|
G|---------------------------|
D|---------------------------| x 4
A|--2h4------2h4-------------|
E|--2----2-2-2----2-2-2-2----|


Lead and Rhythm
e|--------------------------------|
B|--------------------------------|
G|--------------------------------|
D|--6-----5-4-----6---22222222----| x 1
A|--4-----3-2-----4---00000000----|
E|-----x-------x------------------|

e|-------------------------------------|
B|-------------------------------------|
G|-------------------------------------|
D|--6-----5-4-----6---22222222---------| x 1
A|--4-----3-2-----4---00000000--2-2----|
E|-----x-------x-----------------------|


Lead and Rhythm
e|---------------------------|
B|---------------------------|
G|---------------------------|
D|---------------------------| x 2
A|--2h4------2h4-------------|
E|--2----2-2-2----2-2-2-2----|


Lead and Rhythm
e|--------------------------------|
B|--------------------------------|
G|--------------------------------|
D|--6-----5-4-----6---22222222----| x 2
A|--4-----3-2-----4---00000000----|
E|-----x-------x------------------|


Lead and Rhythm
e|-----------------------------|
B|-----------------------------|
G|-----------------------------|
D|--------2---5----------------| x 4
A|--4-2-4-0-4-3----------------|
E|--2-0-2---2------------------|


Lead and Rhythm
e|-----------------------------|
B|-----------------------------|
G|-----------------------------|
D|-----------------------------| x 3
A|--7/8-------7/8--------------|
E|--5/6--0-0--5/6--0-0-0-0-----|

e|-----------------------------|
B|-----------------------------|
G|-----------------------------|
D|-----------------------------| x 1
A|--7/8-------7/8-------10-9---|
E|--5/6--0-0--5/6--0-0---8-7---|


Lead and Rhythm
e|-----------------------------|
B|-----------------------------|
G|-----------------------------|
D|-----------------------------| x 3
A|--7/8-------7/8--------------|
E|--5/6--0-0--5/6--0-0-0-0-----|

e|-----------------------------|
B|-----------------------------|
G|-----------------------------|
D|-----------------------------| x 1
A|--7/8-------7/8-------10-9---|
E|--5/6--0-0--5/6--0-0---8-7---|


Lead and Rhythm
e|---------------------------|
B|---------------------------|
G|---------------------------|
D|---------------------------| x 4
A|--2h4------2h4-------------|
E|--2----2-2-2----2-2-2-2----|


Lead and Rhythm
e|--------------------------------|
B|--------------------------------|
G|--------------------------------|
D|--6-----5-4-----6---22222222----| x 1
A|--4-----3-2-----4---00000000----|
E|-----x-------x------------------|

e|-------------------------------------|
B|-------------------------------------|
G|-------------------------------------|
D|--6-----5-4-----6---22222222---------| x 1
A|--4-----3-2-----4---00000000--2-2----|
E|-----x-------x-----------------------|


Lead and Rhythm
e|---------------------------|
B|---------------------------|
G|---------------------------|
D|---------------------------| x 2
A|--2h4------2h4-------------|
E|--2----2-2-2----2-2-2-2----|


Lead and Rhythm
e|--------------------------------|
B|--------------------------------|
G|--------------------------------|
D|--6-----5-4-----6---22222222----| x 2
A|--4-----3-2-----4---00000000----|
E|-----x-------x------------------|


Lead and Rhythm
e|---------------------------------------------|
B|---------------------------------------------|
G|---------------------------------------------|
D|--9-8-7----6----5-----------5--------5-------| x 4
A|--7-6-5----4----3-----------5--------5-------|
E|---------6----5----4---0000---000000---00----|


Lead and Rhythm
e|------------------------------------------------------|
B|------------------------------------------------------|
G|------------------------------------------------------|
D|---------10------------10-----------9--------9--------|
A|---------10------------10-----------9--------9--------|
E|--8-8-8-8-8-8-8-8-8-8-8-8-8-8--7777-7-777777-7-77-----|

e|------------------------------------------------------|
B|------------------------------------------------------|
G|------------------------------------------------------|
D|-------8--------8----------7--------7-----------------|
A|-------8--------8----------7--------7-----------------|
E|--6666-6-666666-6-66--5555-5-555555-5-00--------------|

e|---------------------------------------------|
B|---------------------------------------------|
G|---------------------------------------------|
D|-------3--------3----------5----------8------|
A|-------3--------3----------5----------8------|
E|--1111-1-111111-1-11--3333-3-33--6666-6-66---|


Lead and Rhythm
e|---------------------------------------------|
B|---------------------------------------------|
G|---------------------------------------------|
D|--9-8-7----6----5-----------5--------5-------| x 3
A|--7-6-5----4----3-----------5--------5-------|
E|---------6----5----4---0000---000000---00----|

e|--------------------------|
B|--------------------------|
G|------------5~--4~--------|
D|--9-8-7-----5~--4~--------| x 1
A|--7-6-5-----3~--2~--------|
E|---------6----------------|


Lead and Rhythm
e|-----------------------------|
B|-----------------------------|
G|-----------5~----------------|
D|-----------5~-------5/7-7~---| x 2
A|--2~-------3~-------5/7-7~---|
E|--0~--0-2------0h2--3/5-5~---|


Solo Tap Lead, The Rhythm
is under the end of Lead solo

T T
e|---------------------|
B|---------------------|
G|--12p5h9-12p5h9------|
D|---------------------| x 13
A|---------------------|
E|---------------------|

Lead
e|-----------------------------------------------|
B|--10~-10b-10b-10-8-7~-7-8-7h8p7----------------|
G|--------------------------------9-7---7-7-9~---|
D|------------------------------------9----------|
A|-----------------------------------------------|
E|-----------------------------------------------|

Lead
e|----------------------------------------------|
B|------5--5/-7--7--7-/8--8--8/-10-10-10-10\8---|
G|----------------------------------------------|
D|------2--2/-4--4--4-/5--5--5/-7--7--7--7-\5---|
A|--7\------------------------------------------|
E|--7\------------------------------------------|

Lead
e|--------------------------------------------------------------|
B|-8-/10-10/-12---12-\10--10-/12--12/-13--13/--15--15/-17--17---|
G|--------------------------------------------------------------|
D|-5-/7---7/--9---9--\7---7--/9---9/--10--10/--12--12/-14--14---|
A|--------------------------------------------------------------|
E|--------------------------------------------------------------|

Lead
e|----------------------------------------------------14-19-17b---|
B|------------15-17b-17p15-17-15----15~-----15-17-17b-------------|
G|--12-14-16~--------------------16------16-----------------------|
D|----------------------------------------------------------------|
A|----------------------------------------------------------------|
E|----------------------------------------------------------------|

Lead
e|--17p14-22b--22-19-22-19----19----------|
B|-------------------------22----22b------|
G|----------------------------------------|
D|----------------------------------------|
A|----------------------------------------|
E|----------------------------------------|

Lead
e|--14h17p14----14h17p14-------------------17p14-------------|
B|-----------17----------17-14----14h17p14-------17-14-------|
G|-----------------------------16----------------------16----|
D|-----------------------------------------------------------|
A|-----------------------------------------------------------|
E|-----------------------------------------------------------|

Lead
e|----------------------------------------------------------------|
B|--14h17p14------------------------------------------------------|
G|-----------16p14-16p14-16p14------------------------------------|
D|-----------------------------16-14----14h16p14------------------|
A|-----------------------------------16----------16p14----14-14---|
E|-----------------------------------------------------17---------|

Lead
e|---------------------------------------------------------|
B|--------------------------------------------------14~----|
G|-----------------------14h16-16p14----14h16-14h16--------|
D|-----------------14h16-------------16--------------------|
A|-----------14h15-----------------------------------------|
E|--17p14h17-----------------------------------------------|

Lead
e|--17b-17b-17b-17~-17-14----14h17p14--------------------------------|
B|------------------------17----------17-141414-17p14----------------|
G|----------------------------------------------------16p14----------|
D|----------------------------------------------------------14-14----|
A|-------------------------------------------------------------------|
E|-------------------------------------------------------------------|

Lead
e|-----------------14-17p14-----|
B|--------------17--------------|
G|--16b-14b---------------------|
D|----------16~-----------------|
A|------------------------------|
E|------------------------------|

Lead
e|-----14-17-19-17p14-----14-17-19p14-17p14-------|
B|--17-----------------17-------------------------|
G|------------------------------------------------|
D|------------------------------------------------| x 2
A|------------------------------------------------|
E|------------------------------------------------|

Lead
e|-----14-----------------------------------------------------|
B|--17----17p14-17p14----14-----------------------------------|
G|--------------------16----16p14-16p14----14h16--------------|
D|--------------------------------------16-------14-14-16~----|
A|------------------------------------------------------------|
E|------------------------------------------------------------|

Lead
e|-------------------------------------14h15p14-------------------|
B|--------14-15--14h15p14----14-15--17----------17-15-14-15-17----|
G|--14-16-----------------16--------------------------------------|
D|----------------------------------------------------------------|
A|----------------------------------------------------------------|
E|----------------------------------------------------------------|

Lead
e|-----------------19----19-20-19-20-22b-22b-22b----|
B|--19-20-22-20-22----22----------------------------|
G|--------------------------------------------------|
D|--------------------------------------------------|
A|--------------------------------------------------|
E|--------------------------------------------------|

Lead
e|--12-14-16-14-12-14-12----14-12-------------------12----------------|
B|-----------------------15-------15-12-15-13-12-13----15-12-15-13----|
G|--------------------------------------------------------------------|
D|--------------------------------------------------------------------|
A|--------------------------------------------------------------------|
E|--------------------------------------------------------------------|

Lead
e|---------------------------------|
B|-----13-12-------12--------------|
G|--14-------14-12----14-12--0w----|
D|---------------------------------|
A|---------------------------------|
E|---------------------------------|

Lead
e|--12b-12b-12b-12b-12b-12b-12b-12b----|
B|-------------------------------------|
G|-------------------------------------|
D|-------------------------------------|
A|-------------------------------------|
E|-------------------------------------|

Lead
e|--15p12-14p12----12-------------------------------------|
B|--------------15----15p14p12-14p12----------------------|
G|-----------------------------------14p12----12-14p12----|
D|-----------------------------------------14-------------|
A|--------------------------------------------------------|
E|--------------------------------------------------------|

Lead
e|---------------------11-----------------11--------------------|
B|--14b-14b-14b-----12----14-12--------------14-12--------------|
G|--14b-14b-14b--13-------------14-13--------------14-13--------|
D|------------------------------------11-----------------11-----|
A|--------------------------------------------------------------|
E|--------------------------------------------------------------|

Lead
e|--12-11--------------12-11-----------------|
B|--------14-12--------------14-12-----------|
G|--------------14-13--------------14-13-----|
D|-------------------------------------------|
A|-------------------------------------------|
E|-------------------------------------------|

Lead
e|--14-12-11-----------16-14-12-----------17-16-14-----------22b---|
B|-----------14-12--------------16-14-12-----------17-16-14--------|
G|-----------------14----------------------------------------------|
D|-----------------------------------------------------------------|
A|-----------------------------------------------------------------|
E|-----------------------------------------------------------------|

Lead
e|-----8-12p8----8-12p8----8-12p8----8-12p8----7----|
B|--10--------10--------10--------10--------10------|
G|--------------------------------------------------|
D|--------------------------------------------------|
A|--------------------------------------------------|
E|--------------------------------------------------|

Lead
e|--10p7---7-10p7---7-10p7---7-10p7----6-10p6---6-10p6---6-10p6---6-10p6---|
B|-------8--------8--------8---------8--------8--------8--------8----------|
G|-------------------------------------------------------------------------|
D|-------------------------------------------------------------------------|
A|-------------------------------------------------------------------------|
E|-------------------------------------------------------------------------|

Lead
e|--------9p5-0-5--9p5-0-5--9p5-0-5--9p5-0-----|
B|--8-10---------------------------------------|
G|---------------------------------------------|
D|---------------------------------------------|
A|---------------------------------------------|
E|---------------------------------------------|

Lead
e|--12p8----8-12p8----8-12p8----8-12p8----7----|
B|-------10--------10--------10--------10------|
G|---------------------------------------------|
D|---------------------------------------------|
A|---------------------------------------------|
E|---------------------------------------------|

Lead
e|--10p7---7-10p7---7-10p7---7-10p7----6-10p6---6-10p6---6-10p6---6-10p6---|
B|-------8--------8--------8---------8--------8--------8--------8----------|
G|-------------------------------------------------------------------------|
D|-------------------------------------------------------------------------|
A|-------------------------------------------------------------------------|
E|-------------------------------------------------------------------------|

Lead
e|--------9p5-0-5--9p5-0-5--9p5-0-5--9p5-0-----|
B|--8-10---------------------------------------|
G|---------------------------------------------|
D|---------------------------------------------|
A|---------------------------------------------|
E|---------------------------------------------|

Lead
e|--13p8----8-13p8----8-13p8----8-13p8----15p10----10-15p10----18p13----|
B|-------10--------10--------10--------10-------12----------12----------|
G|----------------------------------------------------------------------|
D|----------------------------------------------------------------------|
A|----------------------------------------------------------------------|
E|----------------------------------------------------------------------|

Lead
e|-----13-18p13----20p15----15-20p15-20p15----15-20p15-20p15-----|
B|--15----------15-------17----------------17--------------------|
G|---------------------------------------------------------------|
D|---------------------------------------------------------------|
A|---------------------------------------------------------------|
E|---------------------------------------------------------------|

Lead
e|-----15-19p15----15-19p15-19p15----15-19p15-19p15---------|
B|--17----------17----------------17------------------------|
G|----------------------------------------------------------|
D|----------------------------------------------------------|
A|----------------------------------------------------------|
E|----------------------------------------------------------|

Lead
e|-----15-18p15----15-18p15-18p15----15-18p15-18p15---------|
B|--17----------17----------------17------------------------|
G|----------------------------------------------------------|
D|----------------------------------------------------------|
A|----------------------------------------------------------|
E|----------------------------------------------------------|

Lead
e|-----15-17p15----15-17p15-17p15----15-17p15-17p15--17-----|
B|--17----------17----------------17------------------------|
G|----------------------------------------------------------|
D|----------------------------------------------------------|
A|----------------------------------------------------------|
E|----------------------------------------------------------|

Lead
e|--13p8----8-13p8-13p8----8-13p8-13p8----15p10----10-15p10----|
B|-------10-------------10-------------10-------12-------------|
G|-------------------------------------------------------------|
D|-------------------------------------------------------------|
A|-------------------------------------------------------------|
E|-------------------------------------------------------------|

Lead solo end
e|-----18p13----13-18p13-----12b-12b-12b-12b-----|
B|--12-------15----------15----------------------|
G|-----------------------------------------------|
D|-----------------------------------------------|
A|-----------------------------------------------|
E|-----------------------------------------------|

Rhythm for solo
e|-----------------------------|
B|-----------------------------|
G|-----------5~----------------|
D|--2~-------5~-------5/7-7~---| x 4
A|--2~-------3~-------5/7-7~---|
E|--0~--0-2------0h2--3/5-5~---|

Rhythm for solo
e|------------------------------------------------------|
B|------------------------------------------------------|
G|------------------------------------------------------|
D|--------------7-----7-----2-4---4-----4-----4---------| x 4
A|--4-----4---0-5-5-5-5-----0-2-2-2-2-2-2-2-2-2-2-2-----|
E|--2-2-2-2-4-----------2-4-----------------------------|

Rhythm for solo
e|--------------------------|
B|--------------------------|
G|--2-2-2-------------------|
D|--2-2-2--5-5--3~----------| x 1
A|--0-0-0--5-5--3~----------|
E|---------3-3--1~----------|

Rhythm for solo
e|----------------------------------------------|
B|----------------------------------------------|
G|------------------------------------4-5-4-----|
D|------------------------------------4-5-4-----| x 4
A|------------------------------------2-3-2-----|
E|--000000-3p0-000000-3p0-000000-3p0------------|

Rhythm for solo
e|------------------------------------------------------|
B|------------------------------------------------------|
G|------------------------------------------------------|
D|---------10------------10-----------9--------9--------|
A|---------10------------10-----------9--------9--------|
E|--8-8-8-8-8-8-8-8-8-8-8-8-8-8--7777-7-777777-7-77-----|

e|------------------------------------------------------|
B|------------------------------------------------------|
G|------------------------------------------------------|
D|-------8--------8----------7--------7-----------------|
A|-------8--------8----------7--------7-----------------|
E|--6666-6-666666-6-66--5555-5-555555-5-00--------------|

Rhythm for solo
e|------------------------------------------------------|
B|------------------------------------------------------|
G|------------------------------------------------------|
D|---------10------------10-----------9--------9--------|
A|---------10------------10-----------9--------9--------|
E|--8-8-8-8-8-8-8-8-8-8-8-8-8-8--7777-7-777777-7-77-----|

e|------------------------------------------------------|
B|------------------------------------------------------|
G|------------------------------------------------------|
D|-------8--------8----------7--------7-----------------|
A|-------8--------8----------7--------7-----------------|
E|--6666-6-666666-6-66--5555-5-555555-5-55--------------|

e|---------------------------------------------------------------------|
B|---------------------------------------------------------------------|
G|---------10------------10--------------------------------------------|
D|---------10------------10-----------------12---------------8---------|
A|--8-8-8-8-8-8-8-8-8-8-8-8-8-8-------------12---------------8---------|
E|------------------------------10-10-10-10-10-10-10-6-6-6-6-6-6-6-----|

Rhythm for solo ending
e|------------------------------------------------------|
B|------------------------------------------------------|
G|------------------------------------------------------|
D|---------10------------10-----------9--------9--------|
A|---------10------------10-----------9--------9--------|
E|--8-8-8-8-8-8-8-8-8-8-8-8-8-8--7777-7-777777-7-77-----|

e|------------------------------------------------------|
B|------------------------------------------------------|
G|------------------------------------------------------|
D|-------8--------8----------7--------7-----------------|
A|-------8--------8----------7--------7-----------------|
E|--6666-6-666666-6-66--5555-5-555555-5-55--------------|

e|---------------------------------------------|
B|---------------------------------------------|
G|---------------------------------------------|
D|-------3--------3----------5----------8------|
A|-------3--------3----------5----------8------|
E|--1111-1-111111-1-11--3333-3-33--6666-6-66---|


Lead and Rhythm
e|---------------------------------------------|
B|---------------------------------------------|
G|---------------------------------------------|
D|--9-8-7----6----5-----------5--------5-------| x 4
A|--7-6-5----4----3-----------5--------5-------|
E|---------6----5----4---0000---000000---00----|

Lead and Rhythm
e|------------------------------------------------------|
B|------------------------------------------------------|
G|------------------------------------------------------|
D|---------10------------10-----------9--------9--------|
A|---------10------------10-----------9--------9--------|
E|--8-8-8-8-8-8-8-8-8-8-8-8-8-8--7777-7-777777-7-77-----|

e|------------------------------------------------------|
B|------------------------------------------------------|
G|------------------------------------------------------|
D|-------8--------8----------7--------7-----------------|
A|-------8--------8----------7--------7-----------------|
E|--6666-6-666666-6-66--5555-5-555555-5-00--------------|

e|------------------------------------------------------|
B|------------------------------------------------------|
G|------------------------------------------------------|
D|-------3--------3----------5--------5----------8------|
A|-------3--------3----------5--------5----------8------|
E|--1111-1-111111-1-11--3333-3-333333-3-33--6666-6-66---|


Lead and Rhythm
e|---------------------------------------------|
B|---------------------------------------------|
G|---------------------------------------------|
D|--9-8-7----6----5-----------5--------5-------| x 3
A|--7-6-5----4----3-----------5--------5-------|
E|---------6----5----4---0000---000000---00----|

e|-----------------------|
B|-----------------------|
G|------------5~---------|
D|--9-8-7-----5~---------| x 1
A|--7-6-5-----3~---7\----|
E|---------6-------7\----|

Lead and Rhythm
e|-----------------------------|
B|-----------------------------|
G|-----------------------------|
D|-----------------------------| x 11
A|--7/8-------7/8--------------|
E|--5/6--0-0--5/6--0-0-0-0-----|

e|---------------------------------------|
B|---------------------------------------|
G|---------------------------------------|
D|---------------------------------------| x 1
A|--7/8-------7/8-------10-9--8--10-9----|
E|--5/6--0-0--5/6--0-0---8-7--6---8-7----|


Lead and Rhythm
e|-----------------------------|
B|-----------------------------|
G|-----------------------------|
D|-----------------------------| x 3
A|--7/8-------7/8--------------|
E|--5/6--0-0--5/6--0-0-0-0-----|

e|------------------------------|
B|------------------------------|
G|------------------------------|
D|------------------------------| x 1
A|--7/8-------7/8-------10-9----|
E|--5/6--0-0--5/6--0-0---8-7----|

Lead and Rhythm
e|-----------------------------|
B|-----------------------------|
G|-----------------------------|
D|-----------------------------| x 3
A|--7/8-------7/8--------------|
E|--5/6--0-0--5/6--0-0-0-0-----|

e|------------------------------|
B|------------------------------|
G|------------------------------|
D|------------------------------| x 1
A|--7/8-------7/8-------10-9----|
E|--5/6--0-0--5/6--0-0---8-7----|


Lead and Rhythm
e|---------------------------|
B|---------------------------|
G|---------------------------|
D|---------------------------| x 4
A|--2h4------2h4-------------|
E|--2----2-2-2----2-2-2-2----|


Lead and Rhythm
e|--------------------------------|
B|--------------------------------|
G|--------------------------------|
D|--6-----5-4-----6---22222222----| x 1
A|--4-----3-2-----4---00000000----|
E|-----x-------x------------------|

e|-------------------------------------|
B|-------------------------------------|
G|-------------------------------------|
D|--6-----5-4-----6---22222222---------| x 1
A|--4-----3-2-----4---00000000--2-2----|
E|-----x-------x-----------------------|


Lead and Rhythm
e|---------------------------|
B|---------------------------|
G|---------------------------|
D|---------------------------| x 2
A|--2h4------2h4-------------|
E|--2----2-2-2----2-2-2-2----|


Lead and Rhythm
e|--------------------------------|
B|--------------------------------|
G|--------------------------------|
D|--6-----5-4-----6---22222222----| x 2
A|--4-----3-2-----4---00000000----|
E|-----x-------x------------------|


Lead and Rhythm
e|-----------------------------|
B|-----------------------------|
G|-----------------------------|
D|--------2---5----------------| x 5
A|--4-2-4-0-4-3----------------|
E|--2-0-2---2------------------|

Lead and Rhythm
e|-----------------------------|
B|-----------------------------|
G|-----------------------------|
D|--------2--------------------| x 1
A|--4-2-4-0-4-2----------------|
E|--2-0-2---2-0----------------|

Lead and Rhythm
e|-----------------------------|
B|-----------------------------|
G|-----------------------------|
D|--------2---5----------------| x 1
A|--4-2-4-0-4-3----------------|
E|--2-0-2---2------------------|

Lead and Rhythm
e|-----------------------------|
B|-----------------------------|
G|-----------------------------|
D|--------2--------------------| x 1
A|--4-2-4-0-4-2----------------|
E|--2-0-2---2-0----------------|


Lead and Rhythm
e|-----------------------------------------|
B|-----------------------------------------|
G|-----------------------------------------|
D|--------2---5---x-x-5-x-x-5-x-x-5\4------| x 1
A|--4-2-4-0-4-3---x-x-3-x-x-3-x-x-3\2------|
E|--2-0-2---2------------------------------|

e|-----------------------------|
B|-----------------------------|
G|-----------------------------|
D|--------2--------------------| x 1
A|--4-2-4-0-4-2----------------|
E|--2-0-2---2-0---00000000-----|


Lead and Rhythm
e|-----------------------------------------|
B|-----------------------------------------|
G|-----------------------------------------|
D|--------2---5---x-x-5-x-x-5-x-x-5\4------| x 1
A|--4-2-4-0-4-3---x-x-3-x-x-3-x-x-3\2------|
E|--2-0-2---2------------------------------|

e|-----------------------------|
B|-----------------------------|
G|-----------------------------|
D|--------2--------------------| x 1
A|--4-2-4-0-4-2----------------|
E|--2-0-2---2-0---00000000-----|


Lead Outro
e|----------------------------------------------|
B|-----12-13~--------12~------------------------|
G|---------------14------------11~----12--------|
D|--------------------------14-----------14~----|
A|----------------------------------------------|
E|--x---------x----------x---------x------------|

Rhythm Outro
e|----------------------------------------------|
B|----------------------------------------------|
G|-----11-12~-----------------------------------|
D|---------------12-14~-------------------------|
A|-------------------------12-14~---------------|
E|--x---------x---------x---------x--10-12~-----|


*********************************************************

|x Dead note
|~ Let ring
|h Hammer on
|p Pull off
|b bend
|/ slide
|\ slide
|T Tap
|w whammy

*********************************************************
Song info
Ride The Lightning
Metallica
2001
  • Rock
  • Heavy Metal
  • Thrash
Alternative tracks
Similar songs
Kiss Me Deadly - Lita Ford
Return To Metalopolis - Chris Poland
Spit Out The Bone - Metallica

Hi! Hope you enjoy backing track experience.
If you want to help us in the development of the project, feel free to donate!