Hysteria - Muse
00:00 / 00:00
Tabs and lyrics
Tunning: Standard (E A D G B e)
-------------------------------------------------------------------------------
Hysteria Live- Muse
-------------------------------------------------------------------------------
Tabbed by: Sovaso
Tuning: Standard
Album: Absolution (Studio version)

Guitar 1: Matt Bellamy
Intro
e|---------------------------------------------------------------------------|
B|---------------------------------------------------------------------------|
G|-7-7-7-7-7-7-7-7-7-7-7-7-6-6-6-6-------------------------------------------|
D|---------------------------------4-4-4-4-4-4-4-4-5-5-5-5-5-5-5-5-4-4-4-4---|
A|---------------------------------------------------------------------------|
E|---------------------------------------------------------------------------|

e|---------------------------------------------------------------------------|
B|---------------------------------------------------------------------------|
G|-7-7-7-7-7-7-7-7-7-7-7-7-7-7-7-7-7-7-7-7-7-7-7-7--6-6-6-6-6-6--6-6-7-7-7-7-|
D|---------------------------------------------------------------------------|
A|---------------------------------------------------------------------------|
E|---------------------------------------------------------------------------|

e|---------------------------------------------------------------------------|
B|---------------------------------------------------------------------------|
G|-7-7-7-7-7-7-7-7-7-7-7-7-7-7-7-7-7-7-7-7-7-7-7-7-7-7-7-77-7-7-7-777-7777---|
D|---------------------------------------------------------------------------|
A|---------------------------------------------------------------------------|
E|---------------------------------------------------------------------------|

Dom Clicks in

Chris' Bass riff!
e|---------------------------------------------------------------------------|
B|---------------------------------------------------------------------------|
G|-2-------------------------------------------------------------------------|
D|-2-------------------------------------------------------------------------|
A|-0-------------------------------------------------------------------------|
E|---------------------------------------------------------------------------|

Rest for Four bars
e|---------------------------------------------------------------------------|
B|---------------------------------------------------------------------------|
G|---------------------------------------------------------------------------|
D|---------------------------------------------------------------------------|
A|-1//////////////////////////////////////////////////////////////////24-----|
E|-xxxxxxxxxxxxxxxxxxxxxxxxxxxxxxxxxxxxxxxxxxxxxxxxxxxxxxxxxxxxxxxxxxx-------|
Take your pick and slide it starting at first fret to the top until first guitar entry

Main Guitar riff
E|-----------------------------------------------------------------------|
B|-------------------------12brb10-----------------------------12brb10---|
G|--14--14-14-14--14-14-----------------13--13-13-13--13-13--------------|
D|--x---x--x--x---x--x------------------x---x--x--x---x--x---------------|
A|--12--12-12-12--12-12-----------------11--11-11-11--11-11--------------|
E|-----------------------------------------------------------------------|

e|------------------------------------------------------------------|
B|------------------------12brb10---------------------x-12brbrbr----|
G|----------------------------------------------------x-------------|
D|-15--15-15-15-15-15------------------14-14-14-14-14-x-------------|
A|-x---x--x--x---x--x------------------x--x--x--x--x----------------|
E|-13--13-13-13-13-13------------------12-12-12-12-12---------------|

Verse:
rest for 15 bars until:

e|--------------------------------------|
B|--------------------------------------|
G|--------------------------------------|
D|--------------------------------------|
A|-7-x-x-x--7-x-x-x-7-7-7-7-x-x-x-x-----|
E|-5-x-x-x--5-x-x-x-5-5-5-5-x-x-x-x-----|

Chorus:
E|-----------------------------------------------------------------|
B|-----------------------------------------------------------------|
G|--5--5-5-5-5-5-5--5-5-5-5-5-5-5----------------------------------|
D|--5--5-5-5-5-5-5--5-5-5-5-5-5-5----5--5-5-5-5-5-5--5-5-5-5-5-5-5-|
A|--3--3-3-3-3-3-3--3-3-3-3-3-3-3----5--5-5-5-5-5-5--5-5-5-5-5-5-5-|
E|-----------------------------------3--3-3-3-3-3-3--3-3-3-3-3-3-3-|
X2
e|-----------------------------------------------------------------|
B|-----------------------------------------------------------------|
G|--7--7-7-7-7-7-7--7-7-7-7-7-7-7----------------------------------|
D|--7--7-7-7-7-7-7--7-7-7-7-7-7-7----7--7-7-7-7-7-7--7-7-7-7-7-7-7-|
A|--5--5-5-5-5-5-5--5-5-5-5-5-5-5----7--7-7-7-7-7-7--7-7-7-7-7-7-7-|
E|-----------------------------------5--5-5-5-5-5-5--5-5-5-5-5-5-5-|


Post Chorus
E|-----------------------------------------|
B|-----------------------------------------|
G|-----------------------------------------| x3
D|-----------------------------------------|
A|-----------------------------------------|
E|--0-0-10-0-10-12-0-10-0-10-9-0-9-8-0-8---|

Last time

E|-------------------------------------------|
B|-------------------------------------------|
G|-------------------------------------------|
D|-------------------------------------------|
A|-------------------------------------------|
E|--0-0-10-0-10-12-0-15-0-12-0-15-0-12-15h17-|

Pre Verse:

E|-----------------------------------------------------------------------|
B|-------------------------12brb10-----------------------------12brb10---|
G|--14--14-14-14--14-14-----------------13--13-13-13--13-13--------------|
D|--x---x--x--x---x--x------------------x---x--x--x---x--x---------------|
A|--12--12-12-12--12-12-----------------11--11-11-11--11-11--------------|
E|-----------------------------------------------------------------------|

e|------------------------------------------------------------------|
B|------------------------12brb10---------------------x-12brbrbr----|
G|----------------------------------------------------x-------------|
D|-15--15-15-15-15-15------------------14-14-14-14-14-x-------------|
A|-x---x--x--x---x--x------------------x--x--x--x--x----------------|
E|-13--13-13-13-13-13------------------12-12-12-12-12---------------|

Verse:
Guitar gets the bass riff!
e|------------------------------------------------------------------------------|
B|------------------------------------------------------------------------------|
G|------------------------------------------------------------------------------|
D|------------------------------------------------------------------------------|
A|-0-0-10-0-10-12-0-10-0-7-0-8-8-7-5-7------------------------------------------|
E|-------------------------------------0-0-10-0-10-12-0-15-0-12-0-15-15-0-15-17-|

e|------------------------------------------------------------------------------|
B|------------------------------------------------------------------------------|
G|------------------------------------------------------------------------------|
D|-0-0-10-0-10-12-0-10-0-10-9-0-9-8-0-8-7---------------------------------------|
A|------------------------------------------0-0-10-0-10-12-0-10-0-7-0-8-8-7-5-7-|
E|------------------------------------------------------------------------------|

Then

e|--------------------------------------|
B|--------------------------------------|
G|--------------------------------------|
D|--------------------------------------|
A|-7-x-x-x--7-x-x-x-7-7-7-7-x-x-x-x-----|
E|-5-x-x-x--5-x-x-x-5-5-5-5-x-x-x-x-----|

Chorus:
E|-----------------------------------------------------------------|
B|-----------------------------------------------------------------|
G|--5--5-5-5-5-5-5--5-5-5-5-5-5-5----------------------------------|
D|--5--5-5-5-5-5-5--5-5-5-5-5-5-5----5--5-5-5-5-5-5--5-5-5-5-5-5-5-|
A|--3--3-3-3-3-3-3--3-3-3-3-3-3-3----5--5-5-5-5-5-5--5-5-5-5-5-5-5-|
E|-----------------------------------3--3-3-3-3-3-3--3-3-3-3-3-3-3-|
X2
e|-----------------------------------------------------------------|
B|-----------------------------------------------------------------|
G|--7--7-7-7-7-7-7--7-7-7-7-7-7-7----------------------------------|
D|--7--7-7-7-7-7-7--7-7-7-7-7-7-7----7--7-7-7-7-7-7--7-7-7-7-7-7-7-|
A|--5--5-5-5-5-5-5--5-5-5-5-5-5-5----7--7-7-7-7-7-7--7-7-7-7-7-7-7-|
E|-----------------------------------5--5-5-5-5-5-5--5-5-5-5-5-5-5-|


Post Chorus
E|-----------------------------------------|
B|-----------------------------------------|
G|-----------------------------------------| x3
D|-----------------------------------------|
A|-----------------------------------------|
E|--0-0-10-0-10-12-0-10-0-10-9-0-9-8-0-8---|

Last time

E|-------------------------------------------|
B|-------------------------------------------|
G|-------------------------------------------|
D|-------------------------------------------|
A|-------------------------------------------|
E|--0-0-10-0-10-12-0-15-0-12-0-15-0-12-15h17-|

Solo!
Matt usually plays the recorded solo So here that is

Part 1
e|---------------------------------------------------------------------------------------|
B|--------17-17-------18-18-------18-18-17-17----17-------17-17-------18-18-17-17----17--|
G|--14 14-------14-14-------14-14-------------14----13-13-------13-13-------------13-----|
D|---------------------------------------------------------------------------------------|
A|---------------------------------------------------------------------------------------|
E|---------------------------------------------------------------------------------------|

e|--------------------17-17--------------------------------------------------------------|
B|--------18-18-------------------18-18-------17-17-------17-17-------18-18-------18-18--|
G|--14-14-------14-14-------14-14-------14-14-------14-14-------14-14-------14-14--------|
D|---------------------------------------------------------------------------------------|
A|---------------------------------------------------------------------------------------|
E|---------------------------------------------------------------------------------------|

e|--------------------------------------------------------------------------------17-17--|
B|--17-17----17-------17-17-------18-18-------18-18-17-17----17-------18-18--------------|
G|--------14----13-13-------13-13-------13-13-------------13----14-14-------14-14--------|
D|---------------------------------------------------------------------------------------|
A|---------------------------------------------------------------------------------------|
E|---------------------------------------------------------------------------------------|

e|---------------------------------------------------------------------------------------|
B|--------18-18-------17-17-17----------15----------13----------12-----------------------|
G|--14-14-------14-14----------14-14-14--------------------------------------------------|
D|-----------------------------------------15-15-15----14-14-14----12-12-12--------------|
A|---------------------------------------------------------------------------------------|
E|---------------------------------------------------------------------------------------|

Part 2
e|---------------------------------------------------------------------------------------|
B|--13-------12b--10-12-------12-12-13-15--------13b-12-13--------15-13-12---------------|
G|-----12---------------12----------------14---------------14----------------------------|
D|--------14---------------12----------------15---------------14-------------------------|
A|---------------------------------------------------------------------------------------|
E|---------------------------------------------------------------------------------------|

e|----------------------------------------------------------------------12-------10b-8---|
B|--13-------12b--10-12-------12-12-13-14b-----13b-12-13-------15-13-12----13------------|
G|-----12---------------12-------------------------------14-------------------12---------|
D|--------14---------------12--------------14b--------------14---------------------------|
A|---------------------------------------------------------------------------------------|
E|---------------------------------------------------------------------------------------|

e|--10-------10-10-12-13-------13b-13p12----12---10b----12--------10b--8--10-------------|
B|-----12----------------15--------------13----------------13----------------12----------|
G|--------12----------------14--------------------------------12----------------12-------|
D|---------------------------------------------------14----------------------------------|
A|---------------------------------------------------------------------------------------|
E|---------------------------------------------------------------------------------------|

e|--10-10-12-13-------13b-13p12----12--10b----12-------10b--8--10--------10-10b----------|
B|--------------15--------------13---------------13---------------12---------------------|
G|-----------------14-------------------------------12---------------12------------------|
D|-----------------------------------------14--------------------------------------------|
A|---------------------------------------------------------------------------------------|
E|---------------------------------------------------------------------------------------|

e|--13-------13b-13p12----12--10b----------|
B|-----15--------------13------------------|
G|--------14-------------------------------|
D|---------------------------------14~~~~~-|
A|-----------------------------------------|
E|-----------------------------------------|

Chorus:
E|-----------------------------------------------------------------|
B|-----------------------------------------------------------------|
G|--5--5-5-5-5-5-5--5-5-5-5-5-5-5----------------------------------|
D|--5--5-5-5-5-5-5--5-5-5-5-5-5-5----5--5-5-5-5-5-5--5-5-5-5-5-5-5-|
A|--3--3-3-3-3-3-3--3-3-3-3-3-3-3----5--5-5-5-5-5-5--5-5-5-5-5-5-5-|
E|-----------------------------------3--3-3-3-3-3-3--3-3-3-3-3-3-3-|
X2
e|-----------------------------------------------------------------|
B|-----------------------------------------------------------------|
G|--7--7-7-7-7-7-7--7-7-7-7-7-7-7----------------------------------|
D|--7--7-7-7-7-7-7--7-7-7-7-7-7-7----7--7-7-7-7-7-7--7-7-7-7-7-7-7-|
A|--5--5-5-5-5-5-5--5-5-5-5-5-5-5----7--7-7-7-7-7-7--7-7-7-7-7-7-7-|
E|-----------------------------------5--5-5-5-5-5-5--5-5-5-5-5-5-5-|


Outro
E|-----------------------------------------|
B|-----------------------------------------|
G|-----------------------------------------| x4
D|-----------------------------------------|
A|-----------------------------------------|
E|--0-0-10-0-10-12-0-10-0-10-9-0-9-8-0-8---|

Finale outro:

Now when I saw Muse live, they pulled an incredibly unexpected trick and turned the
outro of this song into
none other than AC/DC's classic Back in Black!!

Cha!
e|-----------------------------------|
B|-----------------------------------|
G|-----------------------------------|
D|-----------------------------------|
A|---5p4p2h4-------2------2-----2----|
E|-0---------3-------5\-----6\----7\-|

e|-----------------------------------|
B|-----------------------------------|
G|-----------------------------------|
D|-----------------------------------|
A|---5p4p2h4-------2------2-----2----|
E|-0---------3-------5\-----6\----7\-|


e|----------------------------------|
B|----------------------------------|
G|----------------------------------|
D|---5p4p2h4-----2------2------2----|
A|-0---------3\----5\-----6\-----7\-|
E|----------------------------------|

e|----------------------------------|
B|----------------------------------|
G|----------------------------------|
D|---5p4p2h4-----2------2------2----|
A|-0---------3\----5\-----6\-----7\-|
E|----------------------------------|

e|-----------------------------------|
B|-----------------------------------|
G|-----------------------------------|
D|-----------------------------------|
A|---5p4p2h4-------2------2-----2----|
E|-0---------3-------5\-----6\----7\-|

e|-----------------------------------|
B|-----------------------------------|
G|-----------------------------------|
D|-----------------------------------|
A|---5p4p2h4-------2------2-----2----|
E|-0---------3-------5\-----6\----7\-|

e|-0~------------------------------------------------------------------------|
B|-0~------------------------------------------------------------------------|
G|-1~------------------------------------------------------------------------|
D|-2~------------------------------------------------------------------------|
A|-2~------------------------------------------------------------------------|
E|-0~------------------------------------------------------------------------|
Whammy that a lot!

That's it! Thanks!!

************************************

| / slide up
| \ slide down
| h hammer-on
| p pull-off
| ~ vibrato
| + harmonic
| x Mute note
| b Bend
| pb Pre-bend
| br Bend release
| pbr Pre-bend release
| brb Bend release bend

************************************
Tunning: Standard (E A D G B e)
Artist: Muse
Song: Hysteria
Album: Absolution
Transcribed By: James Ward
E-Mail: Micro_cuts@hotmail.com
Date: 29/10/2003

Notes: Get a bassist!

Important:

For the solo bit, I have tabulated two versions, the
first is less of a stretch, but is awkward to play on
an acoustic guitar. I always use the second version
but it becomes a little awkward at the final bit due
to the fact that youre stretching from 7->12, but I
have rather large hands so it's not a problem. Use
whatever feels comfortable! Take a look at Paul
Gilbert's hands, they're huge!

Also, the second version is slightly easier to pick
because you don't have to skip across any other
strings, just try, see what you like.

Bends & Slides: For this, using the 'b' for the bend
was making it pretty messy, so '/' and '\' mean a
bend, and '//' means a slide (of which there is one)
and '~' means trem.


Tuning: Standard

Chunky Bass intro

Add l-o-n-g distorted+echo/reverb pick scrape

e-------------------------|--------------------|
B-------------------------|-12/13\12--10-------|
G-------------------------|--------------------|
D-------------------------|--------------------|
A-12-12-12-12-12-12-12-12-|--------------------|
E-------------------------|--------------------|

e-------------------------|--------------------|
B-------------------------|-12/13\12--10-------|
G-------------------------|--------------------|
D-------------------------|--------------------|
A-11-11-11-11-11-11-11-11-|--------------------|
E-------------------------|--------------------|

e-------------------------|--------------------|
B-------------------------|-12/13\12--10-------|
G-------------------------|--------------------|
D-------------------------|--------------------|
A-------------------------|--------------------|
E-13-13-13-13-13-13-13-13-|--------------------|

e-------------------------|--------------------|
B-------------------------|-12/13\12/13\12-----|
G-------------------------|--------------------|
D-------------------------|--------------------|
A-------------------------|--------------------|
E-12-12-12-12-12-12-12-12-|--------------------|



e-------------------------|--------------------|
B-------------------------|-12/13\12--10-------|
G-------------------------|--------------------|
D-------------------------|--------------------|
A-12-12-12-12-12-12-12-12-|--------------------|
E-------------------------|--------------------|

e-------------------------|--------------------|
B-------------------------|-12/13\12--10-------|
G-------------------------|--------------------|
D-------------------------|--------------------|
A-11-11-11-11-11-11-11-11-|--------------------|
E-------------------------|--------------------|

e-------------------------|--------------------|
B-------------------------|-12/13\12--10-------|
G-------------------------|--------------------|
D-------------------------|--------------------|
A-------------------------|--------------------|
E-13-13-13-13-13-13-13-13-|--------------------|

e-------------------------|--------------------|-------|
B-------------------------|-12/13\12/13\12-----|-------|
G-------------------------|--------------------|-------|
D-------------------------|--------------------|---7---|
A-------------------------|--------------------|---7---|
E-12-12-12-12-12-12-12-12-|--------------------|---5---|



e--x-x-x-x-x-x-x-x-|--x-x-x-x-x-x-x-x-|
B--x-x-x-x-x-x-x-x-|--x-x-x-x-x-x-x-x-|
G--x-x-x-x-x-x-x-x-|--x-x-x-x-x-x-x-x-|
D--x-x-x-x-x-x-x-x-|--x-x-x-x-x-x-x-x-|
A--x-x-x-x-x-x-x-x-|--x-x-x-x-x-x-x-x-|
E--x-x-x-x-x-x-x-x-|--x-x-x-x-x-x-x-x-|


'I want you now.....' (you can play open or barre chords,
I'm using an acoustic, which sounds
better with open, but with my electric,
it sounds better with barre)

C G Dm Am
e---0------3---|---3------3---|---1------5---|---0------5---|
B---1------5---|---3------3---|---3------6---|---1------5---|
G---0--or--5---|---0--or--4---|---2--or--7---|---2--0r--5---|
D---2------5---|---0------5---|---0------7---|---2------7---|
A---3------3---|---2------5---|----------5---|---0------7---|
E--------------|---3------3---|--------------|----------5---|

e---0------3---|---3------3---|---1------5---|---...
B---1------5---|---3------3---|---3------6---|---...
G---0--or--5---|---0--or--4---|---2--or--7---|---...
D---2------5---|---0------5---|---0------7---|---...
A---3------3---|---2------5---|----------5---|---...
E--------------|---3------3---|--------------|---...

...--------------------------------------------|
...--------------------------------------------|
...--------------------------------------------|
...--------------------------------------------|
...-----------------------------------------12-|
...--0-0-10-0-10-12-0-15-0-12-0-15-15-12-15----|


e-------------------------|--------------------|
B-------------------------|-12/13\12--10-------|
G-------------------------|--------------------|
D-------------------------|--------------------|
A-12-12-12-12-12-12-12-12-|--------------------|
E-------------------------|--------------------|

e-------------------------|--------------------|
B-------------------------|-12/13\12--10-------|
G-------------------------|--------------------|
D-------------------------|--------------------|
A-11-11-11-11-11-11-11-11-|--------------------|
E-------------------------|--------------------|

e-------------------------|--------------------|
B-------------------------|-12/13\12--10-------|
G-------------------------|--------------------|
D-------------------------|--------------------|
A-------------------------|--------------------|
E-13-13-13-13-13-13-13-13-|--------------------|

e-------------------------|--------------------|-------|
B-------------------------|-12/13\12/13\12-----|-------|
G-------------------------|--------------------|-------|
D-------------------------|--------------------|---7---|
A-------------------------|--------------------|---7---|
E-12-12-12-12-12-12-12-12-|--------------------|---5---|


Quieter bass riff on lead (sounds like its being played with the edge of the pick)

e-------------------------------------------|
B-------------------------------------------|
G-------------------------------------------|
D-------------------------------------------|
A--0-0-10-0-10-12-0-10-0-7-0-8-8-7-5-7------|
E-------------------------------------------|

e-------------------------------------------|
B-------------------------------------------|
G-------------------------------------------|
D-------------------------------------------|
A-----------------------------------------12|
E--0-0-10-0-10-12-0-15-0-12-0-15-15-12-15---|

e-------------------------------------------|
B-------------------------------------------|
G-------------------------------------------|
D--0-0-10-0-10-12-0-10-0-10-9-0-9-8-0-8-7---|
A-------------------------------------------|
E-------------------------------------------|

e-------------------------------------------|
B------(part in brackets get played)--------|
G------(over by-the crunching below)--------|
D-------------------------------------------|
A--0-10-0-10-{12-0-10-0-7-0-8-8-7-5-7}------|
E-------------------------------------------|


e--x-x-x-x-x-x-x-x-|--x-x-x-x-x-x-x-x-|
B--x-x-x-x-x-x-x-x-|--x-x-x-x-x-x-x-x-|
G--x-x-x-x-x-x-x-x-|--x-x-x-x-x-x-x-x-|
D--x-x-x-x-x-x-x-x-|--x-x-x-x-x-x-x-x-|
A--x-x-x-x-x-x-x-x-|--x-x-x-x-x-x-x-x-|
E--x-x-x-x-x-x-x-x-|--x-x-x-x-x-x-x-x-|


'I want it now.....'

C G Dm Am
e---0------3---|---3------3---|---1------5---|---0------5---|
B---1------5---|---3------3---|---3------6---|---1------5---|
G---0--or--5---|---0--or--4---|---2--or--7---|---2--0r--5---|
D---2------5---|---0------5---|---0------7---|---2------7---|
A---3------3---|---2------5---|----------5---|---0------7---|
E--------------|---3------3---|--------------|----------5---|

e---0------3---|---3------3---|---1------5---|-x-x-x-x-x-x-x-x-|
B---1------5---|---3------3---|---3------6---|-x-x-x-x-x-x-x-x-|
G---0--or--5---|---0--or--4---|---2--or--7---|-x-x-x-x-x-x-x-x-|
D---2------5---|---0------5---|---0------7---|-x-x-x-x-x-x-x-x-|
A---3------3---|---2------5---|----------5---|-x-x-x-x-x-x-x-x-|
E--------------|---3------3---|--------------|-x-x-x-x-x-x-x-x-|


e-----------------------------------------|
B-----------------------------------------|
G-----------------------------------------|
D-----------------------------------------|
A-----------------------------------------|
E--0-0-10-0-10-12-0-10-0-10-9-0-9-8-0-8-7-|

e-----------------------------------------|
B-----------------------------------------|
G-----------------------------------------|
D-----------------------------------------|
A-----------------------------------------|
E--0-10-0-10-12-0-10-0-10-9-0-9-8-0-8-7---|

e-----------------------------------------|
B-----------------------------------------|
G-----------------------------------------|
D-----------------------------------------|
A-----------------------------------------|
E--0-10-0-10-12-0-10-0-10-9-0-9-8-0-8-7---|

e-------------------------------------------|
B-------------------------------------------|
G-------------------------------------------|
D-------------------------------------------|
A----------------------------------------12-|
E-0-0-10-0-10-12-0-15-0-12-0-15-15-12-15----|


NOTE: There are two versions for this


SOLO BIT - VERSION ONE! {for normal hands}
e------------------------------------------------|
B-------17-17-------18-18-------18-18-17-17----17|
G------------------------------------------------|
D-19-19-------19-19-------19-19-------------19---|
A------------------------------------------------|
E------------------------------------------------|

e------------------------------------------------|
B-------17-17-------18-18-------18-18-17-17------|
G------------------------------------------------|
D-18-18-------18-18-------18-18-------------18---|
A------------------------------------------------|
E------------------------------------------------|

e-------------------17-17------------------------|
B-------18-18-------------------18-18-------17-17|
G------------------------------------------------|
D-19-19-------19-19-------19-19-------19-19------|
A------------------------------------------------|
E------------------------------------------------|

e------------------------------------------------|
B-------17-17-------18-18-------18-18-17-17----17|
G------------------------------------------------|
D-19-19-------19-19-------19-19-------------19---|
A------------------------------------------------|
E------------------------------------------------|


e------------------------------------------------|
B-------17-17-------18-18-------18-18-17-17----17|
G------------------------------------------------|
D-19-19-------19-19-------19-19-------------19---|
A------------------------------------------------|
E------------------------------------------------|

e------------------------------------------------|
B-------17-17-------18-18-------18-18-17-17------|
G------------------------------------------------|
D-18-18-------18-18-------18-18-------------18---|
A------------------------------------------------|
E------------------------------------------------|

e-------------------17-17------------------------|
B-------18-18-------------------18-18-------17-17|
G------------------------------------------------|
D-19-19-------19-19-------19-19-------19-19------|
A------------------------------------------------|
E------------------------------------------------|

e------------------------------------------------|
B-17----------15-----------13---------12---------|
G------------------------------------------------|
D---19-19-19----15-15-15-----14-14-14---12-12-12-|
A------------------------------------------------|
E------------------------------------------------|





SOLO BIT - VERSION TWO! {larger hands/acoustic}
e------------------------------------------------|
B-------17-17-------18-18-------18-18-17-17----17|
G-14-14-------14-14-------14-14-------------14---|
D------------------------------------------------|
A------------------------------------------------|
E------------------------------------------------|

e------------------------------------------------|
B-------17-17-------18-18-------18-18-17-17------|
G-13-13-------13-13-------13-13-------------13---|
D------------------------------------------------|
A------------------------------------------------|
E------------------------------------------------|

e-------------------17-17------------------------|
B-------18-18-------------------18-18-------17-17|
G-14-14-------14-14-------14-14-------14-14------|
D------------------------------------------------|
A------------------------------------------------|
E------------------------------------------------|

e------------------------------------------------|
B-------17-17-------18-18-------18-18-17-17----17|
G-14-14-------14-14-------14-14-------------14---|
D------------------------------------------------|
A------------------------------------------------|
E------------------------------------------------|


e------------------------------------------------|
B-------17-17-------18-18-------18-18-17-17----17|
G-14-14-------14-14-------14-14-------------14---|
D------------------------------------------------|
A------------------------------------------------|
E------------------------------------------------|

e------------------------------------------------|
B-------17-17-------18-18-------18-18-17-17------|
G-13-13-------13-13-------13-13-------------13---|
D------------------------------------------------|
A------------------------------------------------|
E------------------------------------------------|

e-------------------17-17------------------------|
B-------18-18-------------------18-18-------17-17|
G-14-14-------14-14-------14-14-------14-14------|
D------------------------------------------------|
A------------------------------------------------|
E------------------------------------------------|

e------------------------------------------------|
B-17----------15-----------13---------12---------|
G---14-14-14----10-10-10-----9--9--9----7--7--7--|
D------------------------------------------------|
A------------------------------------------------|
E------------------------------------------------|

Counterpoint (I think!)

e-------------------------------------------|
B-13--------13-12-10h12-12------------------|
G----12--------------------12---------------|
D-------14--------------------12------------|
A-------------------------------------------|
E-------------------------------------------|

e-------------------------------------------|
B--12-13//15-------15-13-12h13-13-----------|
G------------14-------------------14--------|
D---------------15-------------------14-----|
A-------------------------------------------|
E-------------------------------------------|

e-------------------------------------------|
B--15-13-12h13-13------12/13\12-10h12-12----|
G----------------12---------------------12--|
D------------------14---------------------12|
A-------------------------------------------|
E-------------------------------------------|

e-------------------------------------------|
B--12-13/15-----------15-13-12h13-13--------|
G------------------------------------14-----|
D----------14 ~ ------------------------14--|
A-------------------------------------------|
E-------------------------------------------|

'Cause I want you now...'

C G Dm Am
e---0------3---|---3------3---|---1------5---|---0------5---|
B---1------5---|---3------3---|---3------6---|---1------5---|
G---0--or--5---|---0--or--4---|---2--or--7---|---2--0r--5---|
D---2------5---|---0------5---|---0------7---|---2------7---|
A---3------3---|---2------5---|----------5---|---0------7---|
E--------------|---3------3---|--------------|----------5---|

e---0------3---|---3------3---|---1------5---|---0------5---|
B---1------5---|---3------3---|---3------6---|---1------5---|
G---0--or--5---|---0--or--4---|---2--or--7---|---2--0r--5---|
D---2------5---|---0------5---|---0------7---|---2------7---|
A---3------3---|---2------5---|----------5---|---0------7---|
E--------------|---3------3---|--------------|----------5---|

Slide down on bass 'E' string (voom)
(i.e. E---0//12\\0---| )

e-----------------------------------------|
B-----------------------------------------|
G-----------------------------------------|
D-----------------------------------------|
A-----------------------------------------|
E--0-0-10-0-10-12-0-10-0-10-9-0-9-8-0-8-7-|

e-----------------------------------------|
B-----------------------------------------|
G-----------------------------------------|
D-----------------------------------------|
A-----------------------------------------|
E--0-10-0-10-12-0-10-0-10-9-0-9-8-0-8-7---|

e-----------------------------------------|
B-----------------------------------------|
G-----------------------------------------|
D-----------------------------------------|
A-----------------------------------------|
E--0-10-0-10-12-0-10-0-10-9-0-9-8-0-8-7---|

e-----------------------------------------|
B-----------------------------------------|
G-----------------------------------------|
D-----------------------------------------|
A-----------------------------------------|
E--0-10-0-10-12-0-10-0-10-9-0-9-8-0-8-7---|

e-----------------------------------------|
B-----------------------------------------|
G-----------------------------------------|
D-----------------------------------------|
A-----------------------------------------|
E--0-10-0-10-12-0-10-0-10-9-0-9-8-0-8-7---|

e-----------------------------------------|
B-----------------------------------------|
G-----------------------------------------|
D-----------------------------------------|
A-----------------------------------------|
E--0-10-0-10-12-0-10-0-10-9-0-9-8-0-8-7---|
Tunning: Nashville (E A D G B E)
Muse - Hysteria
Album - Absolution
Tabbed By - Garry Foster (gazfoster@hotmail.com)

I'm 95% sure about this tab. If you want to play it like matt does then you
need to improvise the main riff so it sounds a little bit differently each time.

[Intro 1/Bass]

E||--------------------------------------|
B||--------------------------------------|
G||--------------------------------------|
D||--------------------------------------|
A||--0-0-10-0-10-12-0-10-0-7-0-8-8-7-5-7-|
E||--------------------------------------|


e|-------------------------------------------|
B|-------------------------------------------|
G|-------------------------------------------|
D|-------------------------------------------|
A|-------------------------------------------|
E|--0-0-10-0-10-12-0-15-0-12-0-15-15-0-15-17-|


e|---------------------------------------|------------------------------------|
B|---------------------------------------|------------------------------------|
G|---------------------------------------|------------------------------------|
D|--0-0-10-0-10-12-0-10-0-10-9-0-9-8-0-8-|7-----------------------------------|
A|---------------------------------------|--0-10-0-10-12-0-10-0-7-0-8-8-7-5-7-|
E|---------------------------------------|------------------------------------|

[Intro 2/Distorted]

the first part is just sliding up the neck,
my part is just a brief guide to the slides.

E||--------------------|----------------------||
B||--------------------|----------------------||
G||--------------------|----------------------||
D||--------------------|----------------------||
A||--------------------|----------------------||
E||--1////////////////-|////////////////////22||


[Main riff]

E||-----------------------------------|-----------------------------------|
B||-----------------------x-12r---10~-|-----------------------x-12r---10~-|
G||--14--14-14-14--14-14--x-----------|--13--13-13-13--13-13--x-----------|
D||--x---x--x--x---x--x---x-----------|--x---x--x--x---x--x---x-----------|
A||--12--12-12-12--12-12--------------|--11--11-11-11--11-11--------------|
E||-----------------------------------|-----------------------------------|


e|-----------------------------------|-------------------------------||
B|-----------------------x-12r---10~-|-----------------x-12r-12r-12r-||
G|--10--10-10-10--10-10--x-----------|--9--9-9-9--9-9--x-------------||
D|--x---x--x--x---x--x---x-----------|--x--x-x-x--x-x--x-------------||
A|--8---8--8--8---8--8---------------|--7--7-7-7--7-7----------------||
E|-----------------------------------|-------------------------------||


[Verse]

E||----------------------------------||
B||----------------------------------||
G||----------------------------------||
D||----------------------------------||
A||--7-7-7-7-7-7-7-7-7-7-7-7-7-7-7-7-||
E||--5-5-5-5-5-5-5-5-5-5-5-5-5-5-5-5-||
P.M..................................


[Chorus]

E||--------------------------------|--------------------------------|
B||--------------------------------|--------------------------------|
G||--5--5-5-5-5-5-5--5-5-5-5-5-5-5-|--------------------------------|
D||--5--5-5-5-5-5-5--5-5-5-5-5-5-5-|--5--5-5-5-5-5-5--5-5-5-5-5-5-5-|
A||--3--3-3-3-3-3-3--3-3-3-3-3-3-3-|--5--5-5-5-5-5-5--5-5-5-5-5-5-5-|
E||--------------------------------|--3--3-3-3-3-3-3--3-3-3-3-3-3-3-|


e|--------------------------------|--------------------------------||
B|--------------------------------|--------------------------------||
G|--7--7-7-7-7-7-7--7-7-7-7-7-7-7-|--------------------------------||
D|--7--7-7-7-7-7-7--7-7-7-7-7-7-7-|--7--7-7-7-7-7-7--7-7-7-7-7-7-7-||
A|--5--5-5-5-5-5-5--5-5-5-5-5-5-5-|--7--7-7-7-7-7-7--7-7-7-7-7-7-7-||
E|--------------------------------|--5--5-5-5-5-5-5--5-5-5-5-5-5-5-||

Do that twice but the 2nd time instead of the last bar do:

E||-------------------------------------------||
B||-------------------------------------------||
G||-------------------------------------------||
D||-------------------------------------------||
A||-------------------------------------------||
E||--0-0-10-0-10-12-0-15-0-12-0-15-0-12-15h17-||


[Pre-solo riff]
the last line of the chorusis changed to:

E||-------------------------------||
B||-------------------------------||
G||-------------------------------||
D||--7-7-7-7-7----7-7-7-7-7-------||
A||--7-7-7-7-7----7-7-7-7-7-------||
E||--5-5-5-5-5--5-5-5-5-5-5-12/---||
P.M. . . . .

Then go into:
E||---------------------------------------|
B||---------------------------------------|
G||---------------------------------------|
D||---------------------------------------|
A||---------------------------------------|
E||--0-0-10-0-10-12-0-10-0-10-9-0-9-8-0-8-|


e|---------------------------------------|------------------------------------|
B|---------------------------------------|------------------------------------|
G|---------------------------------------|------------------------------------|
D|---------------------------------------|------------------------------------|
A|---------------------------------------|------------------------------------|
E|--7-0-10-0-10-12-0-10-0-10-9-0-9-8-0-8-|7-0-10-0-10-12-0-10-0-10-9-0-9-8-0-8|


e|--------------------------------------------||
B|--------------------------------------------||
G|--------------------------------------------||
D|--------------------------------------------||
A|--------------------------------------------||
E|--7-0-10-0-10-12-0-15-0-12-0-15-15-12-15h17-||


[Solo]

Some of it is right, some i think maybe is a bit wrong but it still sound ok.


[Solo 1] - with Whammy pedal

E||--------12-12-------13-13-------13-13-12-12----12-|
B||--------------------------------------------------|
G||--14-14-------14-14-------14-14-------------14----|
D||--------------------------------------------------|
A||--------------------------------------------------|
E||--------------------------------------------------|



e|--------12-12-------13-13-------13-13-12-12-----|
B|------------------------------------------------|
G|--13-13-------13-13-------13-13-------------13--|
D|------------------------------------------------|
A|------------------------------------------------|
E|------------------------------------------------|



e|--------12-12-------17-17-------13-13-------12-12-|
B|--------------------------------------------------|
G|--14-14-------14-14-------14-14-------14-14-------|
D|--------------------------------------------------|
A|--------------------------------------------------|
E|--------------------------------------------------|



e|--------12-12-------13-13-------13-13-12-12----12-|
B|--------------------------------------------------|
G|--14-14-------14-14-------14-14-------------14----|
D|--------------------------------------------------|
A|--------------------------------------------------|
E|--------------------------------------------------|



e|--------12-12-------13-13-------13-13-12-12----12-|
B|--------------------------------------------------|
G|--14-14-------14-14-------14-14-------------14----|
D|--------------------------------------------------|
A|--------------------------------------------------|
E|--------------------------------------------------|



e|--------12-12-------13-13-------13-13-12-12-----|
B|------------------------------------------------|
G|--13-13-------13-13-------13-13-------------13--|
D|------------------------------------------------|
A|------------------------------------------------|
E|------------------------------------------------|



e|--------12-12-------17-17-------13-13-------12-12-|
B|--------------------------------------------------|
G|--14-14-------14-14-------14-14-------14-14-------|
D|--------------------------------------------------|
A|--------------------------------------------------|
E|--------------------------------------------------|



e|--12----------------------------------------------||
B|--------------15----------13----------12----------||
G|-----14-14-14-------------------------------------||
D|-----------------15-15-15----14-14-14----12-12-12-||
A|--------------------------------------------------||
E|--------------------------------------------------||

[Solo 2]
With Whammy pedal and Delay

E||------------------------------|------------------------------|
B||--13--------------13--12------|--12--------------12--12--13--|
G||------12------------------14--|------12----------------------|
D||----------14------------------|----------12------------------|
A||------------------------------|------------------------------|
E||------------------------------|------------------------------|



e|------------------------------|------------------------------|
B|--15--------------15--13--12--|--13--------------15--13--12--|
G|------14----------------------|------14----------------------|
D|----------15------------------|----------14------------------|
A|------------------------------|------------------------------|
E|------------------------------|------------------------------|



e|----------------------------|------------------------------|
B|--13--------------12r---10--|--12--------------12--13--13b-|
G|------12--------------------|------12----------------------|
D|----------14----------------|----------12------------------|
A|----------------------------|------------------------------|
E|----------------------------|------------------------------|



e|--------------------------|------------------------||
B|--------------15--13--12--|--13--------------------||
G|--------------------------|------14----------------||
D|------14------------------|----------14------------||
A|--------------------------|------------------------||
E|--------------------------|------------------------||


[Ending]

E||---------------------------------------|
B||---------------------------------------|
G||---------------------------------------|
D||---------------------------------------|
A||---------------------------------------|
E||--0-0-10-0-10-12-0-10-0-10-9-0-9-8-0-8-|



e|---------------------------------------|------------------------------------|
B|---------------------------------------|------------------------------------|
G|---------------------------------------|------------------------------------|
D|---------------------------------------|------------------------------------|
A|---------------------------------------|------------------------------------|
E|--7-0-10-0-10-12-0-10-0-10-9-0-9-8-0-8-|7-0-10-0-10-12-0-10-0-10-9-0-9-8-0-8|



e|---------------------------------------|------------------------------------|
B|---------------------------------------|------------------------------------|
G|---------------------------------------|------------------------------------|
D|---------------------------------------|------------------------------------|
A|---------------------------------------|------------------------------------|
E|--7-0-10-0-10-12-0-10-0-10-9-0-9-8-0-8-|7-0-10-0-10-12-0-10-0-10-9-0-9-8-0-8|



e|---------------------------------------|-------||
B|---------------------------------------|-------||
G|---------------------------------------|-------||
D|---------------------------------------|-------||
A|---------------------------------------|-------||
E|--7-0-10-0-10-12-0-10-0-10-9-0-9-8-0-8-|--7\---||


Order:

Intro Pt.1
Intro Pt.2
Main Riff
Verse
Chorus
Main Riff
Verse
Chorus
Pre Solo Riff
Solo Pt.1
Solo Pt.2
Chorus
Ending


****************************
| / slide up
| \ slide down
| x dead note
| r release
| P.M. palm muting
****************************
Tunning: Standard (E A D G B e)
This first part is played about 16 secs after the bass at the very start.
Play all of it through once (fast with alternate picking) then play the
2nd intro straight after.

1st intro
E----------------------------------------------------------------|
B----------------------------------------------------------------|
G----------------------------------------------------------------|
D-0-0-0-0-0-0-0-0-0-0-0-0-0-0-0-0-1-1-1-1-1-1-1-1-1-1-1-1-1-1-1--|
A----------------------------------------------------------------|
E----------------------------------------------------------------|

E--------------------------------------------------------------------------|
B--------------------------------------------------------------------------|
G--------------------------------------------------------------------------|
D-2-2-2-2-2-2-2-2-2-2-2-2-2-2-2-2-3-3-3-3-3-3-3-3-3-3-3-3-3-3-3-3--/14\----|
A--------------------------------------------------------------------------|
E--------------------------------------------------------------------------|

2nd intro: Play through twice.
E---------------------------------|
B--------------------12h13p12-10--|
G---------------------------------|
D--14-14-14-14-14-14--------------|
A--12-12-12-12-12-12--------------|
E---------------------------------|

E--------------------------------|
B-------------------12h13p12-10--|
G--------------------------------|
D-12-12-12-12-12-12--------------|
A-10-10-10-10-10-10--------------|
E--------------------------------|

E--------------------------------|
B-------------------12h13p12-10--|
G--------------------------------|
D-10-10-10-10-10-10--------------|
A-8-8-8-8-8-8--------------------|
E--------------------------------|

E---------------------------------|
B--------------12h13p12h13p12-----|
G---------------------------------|
D-9-9-9-9-9-9---------------------|
A-7-7-7-7-7-7---------------------|
E---------------------------------|

There are no tabs in the verse so lets go straight to the chorus!
Chorus:
C
Cause I want it now
G
I want it now
Dm
Give me your heart
Am
And your soul

Note: These chords are the same in every chorus.
The only difference is that the words may be different.
I have given you some lyrics for a little help: )

After you have played the 1st chorus, play this tab.
E---------------------------------------|
B---------------------------------------|
G---------------------------------------|
D---------------------------------------|
A-----------------10-------10-10-11-12--|
E-0-0-10-0-10-12-0--0-12-0--------------|

Now back to the 2nd intro. This time play it through once.
E------------------------------------|
B-----------------------12h13p12-10--|
G------------------------------------|
D--14--14--14-14-14-14---------------|
A--12---12-12-12-12-12---------------|
E------------------------------------|

E---------------------------------|
B--------------------12h13p12-10--|
G---------------------------------|
D-12-12-12-12-12-12---------------|
A-10-10-10-10-10-10---------------|
E---------------------------------|

E---------------------------------|
B--------------------12h13p12-10--|
G---------------------------------|
D-10-10-10-10-10-10---------------|
A-8-8-8-8-8-8---------------------|
E---------------------------------|

E-------------------------------|
B---------------12h13p12h13p12--|
G-------------------------------|
D-9-9-9-9-9-9-------------------|
A-7-7-7-7-7-7-------------------|
E-------------------------------|

There are no tabs in the verse so lets carry on with the rest of the song!
After the verse play the Chorus again:

Chorus Chords: C G Dm Am

Then play this tab through 3 times. (really fast!)
E----------------------------------------|
B----------------------------------------|
G----------------------------------------|
D----------------------------------------|
A----------------------------------------|
E-0-0-10-0-10-12-0-10-9-0-9-8-0-8-7------|

Now play this once (really fast!)
E--------------------------------------|
B--------------------------------------|
G--------------------------------------|
D--------------------------------------|
A-----------------10------10-10-11-12--|
E-0-0-10-0-10-12-0--0-12-0-------------|

Solo: This is the most tricky bit!
E------------------------------------------------|
B-------17-17-------18-18-------18-18-17-17----17|
G-14-14-------14-14-------14-14-------------14---|
D------------------------------------------------|
A------------------------------------------------|
E------------------------------------------------|

E------------------------------------------------|
B-------17-17-------18-18-------18-18-17-17------|
G-13-13-------13-13-------13-13-------------13---|
D------------------------------------------------|
A------------------------------------------------|
E------------------------------------------------|

E-------------------17-17------------------------|
B-------18-18-------------------18-18-------17-17|
G-14-14-------14-14-------14-14-------14-14------|
D------------------------------------------------|
A------------------------------------------------|
E------------------------------------------------|

E------------------------------------------------|
B-------17-17-------18-18-------18-18-17-17----17|
G-14-14-------14-14-------14-14-------------14---|
D------------------------------------------------|
A------------------------------------------------|
E------------------------------------------------|


E------------------------------------------------|
B-------17-17-------18-18-------18-18-17-17----17|
G-14-14-------14-14-------14-14-------------14---|
D------------------------------------------------|
A------------------------------------------------|
E------------------------------------------------|

E------------------------------------------------|
B-------17-17-------18-18-------18-18-17-17------|
G-13-13-------13-13-------13-13-------------13---|
D------------------------------------------------|
A------------------------------------------------|
E------------------------------------------------|

E-------------------17-17------------------------|
B-------18-18-------------------18-18-------17-17|
G-14-14-------14-14-------14-14-------14-14------|
D------------------------------------------------|
A------------------------------------------------|
E------------------------------------------------|

E------------------------------------------------|
B-17----------15-----------13---------12---------|
G---14-14-14----10-10-10-----9--9--9----7--7--7--|
D------------------------------------------------|
A------------------------------------------------|
E------------------------------------------------|
Now for the even harder part!!!
E-------------------------------------------|
B-13--------13-12-10h12-12------------------|
G----12--------------------12---------------|
D-------14--------------------12------------|
A-------------------------------------------|
E-------------------------------------------|

E-------------------------------------------|
B--12-13//15-------15-13-12h13-13-----------|
G------------14-------------------14--------|
D---------------15-------------------14-----|
A-------------------------------------------|
E-------------------------------------------|

E-------------------------------------------|
B--15-13-12h13-13------12/13\12-10h12-12----|
G----------------12---------------------12--|
D------------------14---------------------12|
A-------------------------------------------|
E-------------------------------------------|

E-------------------------------------------|
B--12-13/15-----------15-13-12h13-13--------|
G------------------------------------14-----|
D----------14 ~ ------------------------14--|
A-------------------------------------------|
E-------------------------------------------|

Few! Now play the chorus once again.
Chorus Chords: C G Dm Am
Then Finish off with this tab: Play it through loads of times!
E----------------------------------------|
B----------------------------------------|
G----------------------------------------|
D----------------------------------------|
A----------------------------------------|
E-0-0-10-0-10-12-0-10-9-0-9-8-0-8-7------|

ENJOY!
Tunning: Standard (E A D G B e)
HYSTERIA

do a Very plectrum slide from 00:10 to 00:19

then

INTRO RIFF 2

e----------------------------------------
B-----12^10----12^10---12^10---12^12^12--
G----------------------------------------
D---------------------------------------- X 2
A--12-------11-------8-------7-----------
E----------------------------------------

VERSE (all bass & drums)

CHORUS

e--x-x-x-------------------------------------------------
B--x-x-x--------------------------6--6--6--6-------------
G--x-x-x--5--5--5--5--------------7--7--7--7-------------
D--x-x-x--5--5--5--5--5--5--5--5--7--7--7--7--7--7--7--7-
A--x-x-x--3--3--3--3--5--5--5--5--5--5--5--5--7--7--7--7-
E--x-x-x--------------3--3--3--3--------------5--5--5--5-

e------------------------------------------------------------------
B--------------------------6--6--6--6------------------------------
G--5--5--5--5--------------7--7--7--7------------------------------
D--5--5--5--5--5--5--5--5--7--7--7--7------------------------------
A--3--3--3--3--5--5--5--5--5--5--5--5------------------------------
E--------------3--3--3--3--------------0--0--10--10/12-15-12-15-17-

INTRO RIFF 2

Verse 2 (no guitar)

CHORUS 2

e--x-x-x-------------------------------------------------
B--x-x-x--------------------------6--6--6--6-------------
G--x-x-x--5--5--5--5--------------7--7--7--7-------------
D--x-x-x--5--5--5--5--5--5--5--5--7--7--7--7--7--7--7--7-
A--x-x-x--3--3--3--3--5--5--5--5--5--5--5--5--7--7--7--7-
E--x-x-x--------------3--3--3--3--------------5--5--5--5-

e-------------------------------------------------
B--------------------------6--6--6--6-------------
G--5--5--5--5--------------7--7--7--7-------------
D--5--5--5--5--5--5--5--5--7--7--7--7--7--7--7--7-
A--3--3--3--3--5--5--5--5--5--5--5--5--7--7--7--7-
E--------------3--3--3--3--------------5--5--5--5-

e------------------------------------------------------------
B------------------------------------------------------------
G------------------------------------------------------------
D------------------------------------------------------------
A------------------------------------------------------------
E--0-0-10-0-10h12p10-10p9-9p8-8p7-10-0-10h12p10-10p9-9p8-8p7-

e----------------------------------------------------
B----------------------------------------------------
G----------------------------------------------------
D----------------------------------------------------
A----------------------------------------------------
E--10-0-10h12p10-10p9-9p8-8p7-10-0-10h12-15-12-15-17-


SOLO
e--------12-------13-------13-------12-------12-------13-------13-------12-
B--------------------------------------------------------------------------
G--14-14----14-14----14-14----14-14----13-13----13-13----13-13----13-13----
D--------------------------------------------------------------------------
A--------------------------------------------------------------------------
E--------------------------------------------------------------------------

e--------13-------17-------13-------12-------12-------13-------13-------12-
B--------------------------------------------------------------------------
G--14-14----14-14----14-14----14-14----14-14----14-14----14-14----14-14----
D--------------------------------------------------------------------------
A--------------------------------------------------------------------------
E--------------------------------------------------------------------------

e--------12-------13-------13-------12-------12-------13-------13-------12-
B--------------------------------------------------------------------------
G--14-14----14-14----14-14----14-14----13-13----13-13----13-13----13-13----
D--------------------------------------------------------------------------
A--------------------------------------------------------------------------
E--------------------------------------------------------------------------

e--------13-------17-------13-------12-
B--------------------------------------
G--14-14----14-14----14-14----14-14----
D--------------------------------------
A--------------------------------------
E--------------------------------------

e--12-------10-------8-------7-----
B----------------------------------
G-----14-14----12-12---10-10---9-9-
D----------------------------------
A----------------------------------
E----------------------------------

e--------------------------------------------10----------
B--13----------12^12-10-12----------12-12-13----10-------
G-----12-------------------12----------------------10----
D--------14-10----------------12----------------------12-
A--------------------------------14----------------------
E--------------------------------------------------------

e--10-------------------10----------------------------------------
B-----13-12/13-------------13-12/13----------12^12-10-12----------
G--------------14-------------------12-------------------12-------
D-----------------14-10----------------14-10----------------12----
A--------------------------------------------------------------14-
E-----------------------------------------------------------------
slow bend
e-------------------10--------------------|
B--12-12-13^^-10-------13-12-13-----------|
G----------------10-------------14--------|
D----------------------------------14-10\-|
A-----------------------------------------|
E-----------------------------------------|

CHORUS 2

OUTRO
e------------------------------------------------------------|
B------------------------------------------------------------|
G------------------------------------------------------------|
D------------------------------------------------------------|
A------------------------------------------------------------|
E--0-0-10-0-10h12p10-10p9-9p8-8p7-10-0-10h12p10-10p9-9p8-8p7-|

e--------------------------------------------------------|
B--------------------------------------------------------|
G--------------------------------------------------------|
D--------------------------------------------------------|
A--------------------------------------------------------|
E--10-0-10h12p10-10p9-9p8-8p7-10-0-10h12p10-10p9-9p8-8p7-|

e---------------------------------------------------------|
B---------------------------------------------------------|
G---------------------------------------------------------|
D---------------------------------------------------------|
A---------------------------------------------------------|
E--10-0-10h12p10-10p9-9p8-8p7-10-0-10h12p10-10p9-9p8-8p7--|
Tunning: Standard (E A D G B e)
0% correct, please rate it
Play drop D-tuned with medium distortion
intro
To play this properly, scratch the string with the side of the plectrum

e/---------------------------------------------------
b/---------------------------------------------------
g/---------------------------------------------------
d/---------------------------------------------------
a/---------------------------------------------------
d/6xxxxxxxxxx7xxxxxxxxxxxx8xxxxxxxxxx10xxxxxxxxxx22xx

e/-----------------------------------------------------------
b/---------------------12b12-10----------------------12b12-10
g/14--14-14-14-14-14-------------13--13-13-13-13-13----------
d/x---x--x--x--x--x--------------x---x--x--x--x--x-----------
a/12--12-12-12-12-12-------------11--11-11-11-11-11----------
d/-----------------------------------------------------------

e/----------------------------------------------------------
b/--------------------12b12-10----------------12b12-12b12-12
g/10--10-10-10-10-10------------9--9-9-9-9-9----------------
d/-x---x--x--x--x--x------------x--x-x-x-x-x----------------
a/-8---8--8--8--8--8------------7--7-7-7-7-7----------------
d/---------------------------------------------------------- x2

The verse is just bass, at the end before the chorus, this chord is muted

e/-------------------------------
b/-------------------------------
g/-------------------------------
d/-------------------------------
a/7-7-7-7-7-7-7-7-7-7-7-7-7-7-7-7
d/5-5-5-5-5-5-5-5-5-5-5-5-5-5-5-5

for the chorus play this

e/-------------------------------------------------------
b/-------------------------------------------------------
g/5-5-5-5-5-5---5-5-5-5-5-5-5----------------------------
d/5-5-5-5-5-5---5-5-5-5-5-5-5-5-5-5-5-5-5---5-5-5-5-5-5-5
a/3-3-3-3-3-3-3-3-3-3-3-3-3-3-5-5-5-5-5-5---5-5-5-5-5-5-5
d/----------------------------3-3-3-3-3-3-3-3-3-3-3-3-3-3

e/-------------------------------------------------------
b/-------------------------------------------------------
g/7-7-7-7-7-7---7-7-7-7-7-7-7----------------------------
d/7-7-7-7-7-7---7-7-7-7-7-7-7-7-7-7-7-7-7---7-7-7-7-7-7-7
a/5-5-5-5-5-5-5-5-5-5-5-5-5-5-7-7-7-7-7-7---7-7-7-7-7-7-7
d/----------------------------5-5-5-5-5-5-5-5-5-5-5-5-5-5 x2

then play this leading to the verse play this

e/-----------------------------------------------------------
b/---------------------12b12-10----------------------12b12-10
g/14--14-14-14-14-14-------------13--13-13-13-13-13----------
d/x---x--x--x--x--x--------------x---x--x--x--x--x-----------
a/12--12-12-12-12-12-------------11--11-11-11-11-11----------
d/-----------------------------------------------------------

e/----------------------------------------------------------
b/--------------------12b12-10----------------12b12-12b12-12
g/10--10-10-10-10-10------------9--9-9-9-9-9----------------
d/-x---x--x--x--x--x------------x--x-x-x-x-x----------------
a/-8---8--8--8--8--8------------7--7-7-7-7-7----------------
d/---------------------------------------------------------- x1

for chorus number 2 play this

e/-------------------------------------------------------
b/-------------------------------------------------------
g/5-5-5-5-5-5---5-5-5-5-5-5-5----------------------------
d/5-5-5-5-5-5---5-5-5-5-5-5-5-5-5-5-5-5-5---5-5-5-5-5-5-5
a/3-3-3-3-3-3-3-3-3-3-3-3-3-3-5-5-5-5-5-5---5-5-5-5-5-5-5
d/----------------------------3-3-3-3-3-3-3-3-3-3-3-3-3-3

e/-------------------------------------------------------
b/-------------------------------------------------------
g/7-7-7-7-7-7---7-7-7-7-7-7-7----------------------------
d/7-7-7-7-7-7---7-7-7-7-7-7-7-7-7-7-7-7-7---7-7-7-7-7-7-7
a/5-5-5-5-5-5-5-5-5-5-5-5-5-5-7-7-7-7-7-7---7-7-7-7-7-7-7
d/----------------------------5-5-5-5-5-5-5-5-5-5-5-5-5-5 x2

leading to the riff play this

e/--------------------------------------
b/--------------------------------------
g/--------------------------------------
d/--------------------------------------
a/--------------------------------------
d/0-0-10-0-10-12-0-10-0-10-9-0-9-8-0-8-7

e/-------------------------------------
b/-------------------------------------
g/-------------------------------------
d/-------------------------------------
a/-------------------------------------
d/-0-10-0-10-12-0-10-0-10-9-0-9-8-0-8-7

e/-------------------------------------
b/-------------------------------------
g/-------------------------------------
d/-------------------------------------
a/-------------------------------------
d/-0-10-0-10-12-0-10-0-10-9-0-9-8-0-8-7

e/----------------------------------------
b/----------------------------------------
g/----------------------------------------
d/----------------------------------------
a/----------------------------------------
d/-0-10-0-10-12-0-15-0-12-0-15-15-12-15-17

and for the riff play this using delay

e/------12-12-------13-13------13-13-12-12----12
b/----------------------------------------------
g/14-14-------14-14-------14-14------------14---
d/----------------------------------------------
a/----------------------------------------------
d/----------------------------------------------

e/------12-12-------13-13------13-13-12-12----12
b/----------------------------------------------
g/13-13-------13-13-------13-13------------13---
d/----------------------------------------------
a/----------------------------------------------
d/----------------------------------------------


e/------13-13-------17-17------13-13-------12-12-------12-12-------13-13
b/----------------------------------------------------------------------
g/14-14-------14-14-------14-14------14-14-------14-14-------14-14------
d/----------------------------------------------------------------------
a/----------------------------------------------------------------------
d/----------------------------------------------------------------------

e/------13-13-12-12----12
b/-----------------------
g/14-14------------14----
d/-----------------------
a/-----------------------
d/-----------------------


e/------12-12-------13-13------13-13-12-12----12
b/----------------------------------------------
g/14-14-------14-14-------14-14------------14---
d/----------------------------------------------
a/----------------------------------------------
d/----------------------------------------------

e/------12-12-------13-13------13-13-12-12----12
b/----------------------------------------------
g/13-13-------13-13-------13-13------------13---
d/----------------------------------------------
a/----------------------------------------------
d/----------------------------------------------

e/------13-13-------17-17------13-13-------12-0-
b/----------------------------------------------
g/14-14-------14-14-------14-14------14-14------
d/----------------------------------------------
a/----------------------------------------------
d/----------------------------------------------

e/12----------------------------------------------
b/------------15----------13----------12----------
g/---14-14-14-------------------------------------
d/---------------15-15-15----14-14-14----12-12-12-
a/------------------------------------------------
d/------------------------------------------------

(part 2)

e/-----------------------------------------------------------------
b/-13-------13-12-----12-------12-12-13-15-------15-13-12-13-------
g/----12----------14-----12----------------14----------------14----
d/-------14-----------------12----------------15----------------14-
a/------------------------------------------------------------------
d/------------------------------------------------------------------

e/------------------------------------------------------------------------
b/-15-13-12-13-------12b12-10-12--------12-12-13b----15-15-13-12-13-------
g/-------------12----------------12---------------------------------14----
d/----------------14----------------12------------14-------------------14-
a/------------------------------------------------------------------------
d/------------------------------------------------------------------------

for the last chorus play this

e/-------------------------------------------------------
b/-------------------------------------------------------
g/5-5-5-5-5-5---5-5-5-5-5-5-5----------------------------
d/5-5-5-5-5-5---5-5-5-5-5-5-5-5-5-5-5-5-5---5-5-5-5-5-5-5
a/3-3-3-3-3-3-3-3-3-3-3-3-3-3-5-5-5-5-5-5---5-5-5-5-5-5-5
d/----------------------------3-3-3-3-3-3-3-3-3-3-3-3-3-3

e/-------------------------------------------------------
b/-------------------------------------------------------
g/7-7-7-7-7-7---7-7-7-7-7-7-7----------------------------
d/7-7-7-7-7-7---7-7-7-7-7-7-7-7-7-7-7-7-7---7-7-7-7-7-7-7
a/5-5-5-5-5-5-5-5-5-5-5-5-5-5-7-7-7-7-7-7---7-7-7-7-7-7-7
d/----------------------------5-5-5-5-5-5-5-5-5-5-5-5-5-5 x2

for the outro play this

e/--------------------------------------
b/--------------------------------------
g/--------------------------------------
d/--------------------------------------
a/--------------------------------------
d/0-0-10-0-10-12-0-10-0-10-9-0-9-8-0-8-7

e/-------------------------------------
b/-------------------------------------
g/-------------------------------------
d/-------------------------------------
a/-------------------------------------
d/-0-10-0-10-12-0-10-0-10-9-0-9-8-0-8-7

e/-------------------------------------
b/-------------------------------------
g/-------------------------------------
d/-------------------------------------
a/-------------------------------------
d/-0-10-0-10-12-0-10-0-10-9-0-9-8-0-8-7

e/-------------------------------------
b/-------------------------------------
g/-------------------------------------
d/-------------------------------------
a/-------------------------------------
d/-0-10-0-10-12-0-10-0-10-9-0-9-8-0-8-7

e/-------------------------------------
b/-------------------------------------
g/-------------------------------------
d/-------------------------------------
a/-------------------------------------
d/-0-10-0-10-12-0-10-0-10-9-0-9-8-0-8-7

e/---------------------------------------
b/---------------------------------------
g/---------------------------------------
d/---------------------------------------
a/---------------------------------------
d/-0-10-0-10-12-0-10-0-10-9-0-9-8-0-8-7\0

Notation

--\-- Slide
--b-- bend string

chords

e/----------
b/----------
g/5-----7---
d/5--5--7--7
a/3--5--5--7
d/---3-----5

if you have any problems with the tab, contact me (shamusus@hotmail.com) and i will
try my best to help you.
Tunning: Standard (E A D G B e)
This is my tab, I think this is pretty much completly right. Its a
compromise of what Matt Bellamy does live and what I PERSONALLY can
hear. I have done this tab a bar at a time, which should make things
easier for you.


KEY

|1---------2---------3---------4--------- this is the beats of the bar |
| to help you keep time |
| |
|#bud means (b)end the note (u)p then (d)own |
| |
|#budup means (b)end the note (u)p then (d)own then (u)p then (d)own |
| |
|x is a dead note created my resting fingers over the strings and then |
| strumming |
| |
|d an u underneath the tab is the stroke for the strumming |
| |
|/// signifys a slide up |
| |
|\\\ signifys a slide down |



Muse - Hysteria


Ad lib scratching up the bottom E string into intro riff






[[[[[[[[[[[[[[[[[ Intro Riff ]]]]]]]]]]]]]]]]]]






1---------2---------3---------4---------

e----x---x--x--x---x--x-----------------------|
B----x---x--x--x---x--x--------12bud-10-------|
G---14--14-14-14--14-14-----------------------|
D----x---x--x--x---x--x-----------------------|
A---12--12-12-12--12-12-----------------------|
E----x---x--x--x---x--x-----------------------|
d d u d d u




1---------2---------3---------4---------

e----x---x--x--x---x--x-----------------------|
B----x---x--x--x---x--x-----------------------|
G---13--13-13-13--13-13--------12bud-10-------|
D----x---x--x--x---x--x-----------------------|
A---11--11-11-11--11-11-----------------------|
E----x---x--x--x---x--x-----------------------|
d d u d d u




1---------2---------3---------4---------

e----x---x--x--x---x--x-----------------------|
B----x---x--x--x---x--x--------12bud-10-------|
G---10--10-10-10--10-10-----------------------|
D----x---x--x--x---x--x-----------------------|
A----8---8--8--8---8--8-----------------------|
E----x---x--x--x---x--x-----------------------|
d d u d d u



1---------2---------3---------4---------

e----x---x--x--x---x--x-----------------------|
B----x---x--x--x---x--x-----------------------|
G----9---9--9--9---9--9--------12budud--------|
D----x---x--x--x---x--x-----------------------|
A----7---7--7--7---7--7-----------------------|
E----x---x--x--x---x--x-----------------------|
d d u d d u

1---------2---------3---------4---------

e----x---x--x--x---x--x-----------------------|
B----x---x--x--x---x--x--------12bud-10-------|
G---14--14-14-14--14-14-----------------------|
D----x---x--x--x---x--x-----------------------|
A---12--12-12-12--12-12-----------------------|
E----x---x--x--x---x--x-----------------------|
d d u d d u




1---------2---------3---------4---------

e----x---x--x--x---x--x-----------------------|
B----x---x--x--x---x--x-----------------------|
G---13--13-13-13--13-13--------12bud-10-------|
D----x---x--x--x---x--x-----------------------|
A---11--11-11-11--11-11-----------------------|
E----x---x--x--x---x--x-----------------------|
d d u d d u




1---------2---------3---------4---------

e----x---x--x--x---x--x-----------------------|
B----x---x--x--x---x--x--------12bud-10-------|
G---10--10-10-10--10-10-----------------------|
D----x---x--x--x---x--x-----------------------|
A----8---8--8--8---8--8-----------------------|
E----x---x--x--x---x--x-----------------------|
d d u d d u



1---------2---------3---------4---------

e----x---x--x--x---x--x-----------------------|
B----x---x--x--x---x--x-----------------------|
G----9---9--9--9---9--9--------12budud--------|
D----x---x--x--x---x--x-----------------------|
A----7---7--7--7---7--7-----------------------|
E----x---x--x--x---x--x-----------------------|
d d u d d u






[[[[[[[[[[[[[[[[[[[ Verse ]]]]]]]]]]]]]]]]]]]]






It's bugging........me.......................

1---------2---------3---------4---------

e---------------------------------------------|
B---------------------------------------------|
G---------------------------------------------|
D----7----------------------------------------|
A----7----------------------------------------|
E----5----------------------------------------|

...grating.......me..................and...

1---------2---------3---------4---------

e---------------------------------------------|
B---------------------------------------------|
G---------------------------------------------|
D---------------------------------------------|
A---------------------------------------------|
E---------------------------------------------|

...twisting.......me........a--------------

1---------2---------3---------4---------

e---------------------------------------------|
B---------------------------------------------|
G---------------------------------------------|
D---------------------------------------------|
A---------------------------------------------|
E---------------------------------------------|

--------round..............yeah....i'm.....

1---------2---------3---------4---------

e---------------------------------------------|
B---------------------------------------------|
G---------------------------------------------|
D---------------------------------------------|
A---------------------------------------------|
E---------------------------------------------|

....e-----ndlessl------y...................

1---------2---------3---------4---------

e---------------------------------------------|
B---------------------------------------------|
G---------------------------------------------|
D---------------------------------------------|
A---------------------------------------------|
E---------------------------------------------|

...ca------ving..i-----n.............and...

1---------2---------3---------4---------

e---------------------------------------------|
B---------------------------------------------|
G---------------------------------------------|
D---------------------------------------------|
A---------------------------------------------|
E---------------------------------------------|

...tur-----ning...in-------side------out...

1---------2---------3---------4---------

e---------------------------------------------|
B---------------------------------------------|
G---------------------------------------------|
D---------------------------------------------|
A---------------------------------------------|
E---------------------------------------------|

..........................cos i want it....

1---------2---------3---------4---------

e---------------------------------------------|
B---------------------------------------------|
G---------------------------------------------|
D-----x-x-x-x-x-x-x-x-x-x-x-x-x-x-x-x-x-x-x-x-|
A-----x-x-x-x-x-x-x-x-x-x-x-x-x-x-x-x-x-x-x-x-|
E-----x-x-x-x-x-x-x-x-x-x-x-x-x-x-x-x-x-x-x-x-|


On the bar abouve lightly hold the strings over the first and
2nd fret and strum up and down to get this dead string sound.






[[[[[[[[[[[[[[[[[[[ Chorus ]]]]]]]]]]]]]]]]]]]]






...now............................I Want it

1---------2---------3---------4---------

e---------------------------------------------|
B---------------------------------------------|
G----5-----5-5-5----3////5-----5-5-5-5--------|
D----5-----5-5-5----3////5-----5-5-5-5--------|
A----3-----3-3-3----2////3-----3-3-3-3--------|
E---------------------------------------------|
d d u d d d u d u

.....now.....................................

1---------2---------3---------4---------

e---------------------------------------------|
B---------------------------------------------|
G---------------------------------------------|
D----5-----5-5-5----3////5-----5-5-5-5--------|
A----5-----5-5-5----3////5-----5-5-5-5--------|
E----3-----3-3-3----2////3-----3-3-3-3--------|
d d u d d d u d u

...give me your heart and your.....

1---------2---------3---------4---------

e---------------------------------------------|
B---------------------------------------------|
G----7-----7-7-7----6////7-----7-7-7-7--------|
D----7-----7-7-7----6////7-----7-7-7-7--------|
A----5-----5-5-5----4////5-----5-5-5-5--------|
E---------------------------------------------|
d d u d d d u d u

...sou-----------------l.and i'm breaking..

1---------2---------3---------4---------

e---------------------------------------------|
B---------------------------------------------|
G---------------------------------------------|
D----7-----7-7-7----6////7-----7-7-7-7-7-7----|
A----7-----7-7-7----6////7-----7-7-7-7-7-7----|
E----5-----5-5-5----4////5-----5-5-5-5-5-5----|
d d u d d d u d u d u

...ou------------------t.....i'm breaking..

1---------2---------3---------4---------

e---------------------------------------------|
B---------------------------------------------|
G----5-----5-5-5----3////5-----5-5-5-5--------|
D----5-----5-5-5----3////5-----5-5-5-5--------|
A----3-----3-3-3----2////3-----3-3-3-3--------|
E---------------------------------------------|
d d u d d d u d u

.....ou----------------t...................

1---------2---------3---------4---------

e---------------------------------------------|
B---------------------------------------------|
G---------------------------------------------|
D----5-----5-5-5----3////5-----5-5-5-5--------|
A----5-----5-5-5----3////5-----5-5-5-5--------|
E----3-----3-3-3----2////3-----3-3-3-3--------|
d d u d d d u d u

...last chance to loose con---tro-----..

1---------2---------3---------4---------

e---------------------------------------------|
B---------------------------------------------|
G----7-----7-7-7----6////7-----7-7-7-7--------|
D----7-----7-7-7----6////7-----7-7-7-7--------|
A----5-----5-5-5----4////5-----5-5-5-5--------|
E---------------------------------------------|
d d u d d d u d u

...-------------------------l.............


1---------2---------3---------4---------

e---------------------------------------------|
B---------------------------------------------|
G---------------------------------------------|
D---------------------------------------------|
A---------------------------------------------|
E----0-0-12-0-12-13-0-15-0-12-0-15-15-12-15-17|
d u d u d u d u d u d u d u d u






[[[[[[[[[[[[[[[[[ Intro Riff ]]]]]]]]]]]]]]]]]]






1---------2---------3---------4---------

e----x---x--x--x---x--x-----------------------|
B----x---x--x--x---x--x--------12bud-10-------|
G---14--14-14-14--14-14-----------------------|
D----x---x--x--x---x--x-----------------------|
A---12--12-12-12--12-12-----------------------|
E----x---x--x--x---x--x-----------------------|
d d u d d u




1---------2---------3---------4---------

e----x---x--x--x---x--x-----------------------|
B----x---x--x--x---x--x-----------------------|
G---13--13-13-13--13-13--------12bud-10-------|
D----x---x--x--x---x--x-----------------------|
A---11--11-11-11--11-11-----------------------|
E----x---x--x--x---x--x-----------------------|
d d u d d u




1---------2---------3---------4---------

e----x---x--x--x---x--x-----------------------|
B----x---x--x--x---x--x--------12bud-10-------|
G---10--10-10-10--10-10-----------------------|
D----x---x--x--x---x--x-----------------------|
A----8---8--8--8---8--8-----------------------|
E----x---x--x--x---x--x-----------------------|
d d u d d u



1---------2---------3---------4---------

e----x---x--x--x---x--x-----------------------|
B----x---x--x--x---x--x-----------------------|
G----9---9--9--9---9--9--------12budud--------|
D----x---x--x--x---x--x-----------------------|
A----7---7--7--7---7--7-----------------------|
E----x---x--x--x---x--x-----------------------|
d d u d d u






[[[[[[[[[[[[[[[[[[[ Verse ]]]]]]]]]]]]]]]]]]]]






It's holding........me.......................

1---------2---------3---------4---------

e---------------------------------------------|
B---------------------------------------------|
G---------------------------------------------|
D----7----------------------------------------|
A----7----------------------------------------|
E----5----------------------------------------|

...morphing.......me.................and...

1---------2---------3---------4---------

e---------------------------------------------|
B---------------------------------------------|
G---------------------------------------------|
D---------------------------------------------|
A---------------------------------------------|
E---------------------------------------------|

...forcing.......me........to.......stri-..

1---------2---------3---------4---------

e---------------------------------------------|
B---------------------------------------------|
G---------------------------------------------|
D---------------------------------------------|
A---------------------------------------------|
E---------------------------------------------|

-----------------ve.........to.......be....

1---------2---------3---------4---------

e---------------------------------------------|
B---------------------------------------------|
G---------------------------------------------|
D---------------------------------------------|
A---------------------------------------------|
E---------------------------------------------|

....e-----ndlessl------y...................

1---------2---------3---------4---------

e---------------------------------------------|
B---------------------------------------------|
G---------------------------------------------|
D---------------------------------------------|
A---------------------------------------------|
E---------------------------------------------|

...co----ld..withi---------------n...and...

1---------2---------3---------4---------

e---------------------------------------------|
B---------------------------------------------|
G---------------------------------------------|
D---------------------------------------------|
A---------------------------------------------|
E---------------------------------------------|

...drea-----ming...i---m....a--------li-...

1---------2---------3---------4---------

e---------------------------------------------|
B---------------------------------------------|
G---------------------------------------------|
D---------------------------------------------|
A---------------------------------------------|
E---------------------------------------------|

------------------ve......cos i want it....

1---------2---------3---------4---------

e---------------------------------------------|
B---------------------------------------------|
G---------------------------------------------|
D-----x-x-x-x-x-x-x-x-x-x-x-x-x-x-x-x-x-x-x-x-|
A-----x-x-x-x-x-x-x-x-x-x-x-x-x-x-x-x-x-x-x-x-|
E-----x-x-x-x-x-x-x-x-x-x-x-x-x-x-x-x-x-x-x-x-|






[[[[[[[[[[[[[[[[[[[ Chorus ]]]]]]]]]]]]]]]]]]]]






...now............................I Want it

1---------2---------3---------4---------

e---------------------------------------------|
B---------------------------------------------|
G----5-----5-5-5----3////5-----5-5-5-5--------|
D----5-----5-5-5----3////5-----5-5-5-5--------|
A----3-----3-3-3----2////3-----3-3-3-3--------|
E---------------------------------------------|
d d u d d d u d u

.....now.....................................

1---------2---------3---------4---------

e---------------------------------------------|
B---------------------------------------------|
G---------------------------------------------|
D----5-----5-5-5----3////5-----5-5-5-5--------|
A----5-----5-5-5----3////5-----5-5-5-5--------|
E----3-----3-3-3----2////3-----3-3-3-3--------|
d d u d d d u d u

...give me your heart and your.....

1---------2---------3---------4---------

e---------------------------------------------|
B---------------------------------------------|
G----7-----7-7-7----6////7-----7-7-7-7--------|
D----7-----7-7-7----6////7-----7-7-7-7--------|
A----5-----5-5-5----4////5-----5-5-5-5--------|
E---------------------------------------------|
d d u d d d u d u

...sou-----------------l.and i'm breaking..

1---------2---------3---------4---------

e---------------------------------------------|
B---------------------------------------------|
G---------------------------------------------|
D----7-----7-7-7----6////7-----7-7-7-7-7-7----|
A----7-----7-7-7----6////7-----7-7-7-7-7-7----|
E----5-----5-5-5----4////5-----5-5-5-5-5-5----|
d d u d d d u d u d u

...ou------------------t.....i'm breaking..

1---------2---------3---------4---------

e---------------------------------------------|
B---------------------------------------------|
G----5-----5-5-5----3////5-----5-5-5-5--------|
D----5-----5-5-5----3////5-----5-5-5-5--------|
A----3-----3-3-3----2////3-----3-3-3-3--------|
E---------------------------------------------|
d d u d d d u d u

.....ou----------------t...................

1---------2---------3---------4---------

e---------------------------------------------|
B---------------------------------------------|
G---------------------------------------------|
D----5-----5-5-5----3////5-----5-5-5-5--------|
A----5-----5-5-5----3////5-----5-5-5-5--------|
E----3-----3-3-3----2////3-----3-3-3-3--------|
d d u d d d u d u

...last chance to loose con---tro-----..

1---------2---------3---------4---------

e---------------------------------------------|
B---------------------------------------------|
G----7-----7-7-7----6////7-----7-7-7-7--------|
D----7-----7-7-7----6////7-----7-7-7-7--------|
A----5-----5-5-5----4////5-----5-5-5-5--------|
E---------------------------------------------|
d d u d d d u d u

...-------------------------l.............


1---------2---------3---------4---------

e---------------------------------------------|
B---------------------------------------------|
G---------------------------------------------|
D----7-----7-7-7---7-7-7-7-7-7----------------|
A----7-----7-7-7---7-7-7-7-7-7----------------|
E----5-----5-5-5---5-5-5-5-5-5--12//////////0-|
d d u d d u d u d u d
P.M...........






[[[[[[[[[[[[[[[Pre-solo and solo]]]]]]]]]]]]]]]]






1---------2---------3---------4---------

e---------------------------------------------|
B---------------------------------------------|
G---------------------------------------------|
D---------------------------------------------|
A---------------------------------------------|
E----0-0-12-0-12-13-0-10-0-10-9-0-9-8-0-8-7---|
d u d u d u d u d u d u d u d u d

1---------2---------3---------4---------

e---------------------------------------------|
B---------------------------------------------|
G---------------------------------------------|
D---------------------------------------------|
A---------------------------------------------|
E----0-12-0-12-13-0-10-0-10-9-0-9-8-0-8-7-----|
d u d u d u d u d u d u d u d u

1---------2---------3---------4---------

e---------------------------------------------|
B---------------------------------------------|
G---------------------------------------------|
D---------------------------------------------|
A---------------------------------------------|
E----0-12-0-12-13-0-10-0-10-9-0-9-8-0-8-7-----|
d u d u d u d u d u d u d u d u

1---------2---------3---------4---------

e---------------------------------------------|
B---------------------------------------------|
G---------------------------------------------|
D---------------------------------------------|
A---------------------------------------------|
E----0-12-0-12-13-0-15-0-12-0-15-15-12-15-17--|
d u d u d u d u d u d u d u d

1---------2---------3---------4---------

e---------12-12-----13-13-----13-13-12-12--12-|
B---------------------------------------------|
G----14-14-----14-14-----14-14-----------14---|
D---------------------------------------------|
A---------------------------------------------|
E---------------------------------------------|

1---------2---------3---------4---------

e---------12-12-----13-13-----13-13-12-12-----|
B---------------------------------------------|
G----13-13-----13-13-----13-13-----------13---|
D------------------------------------------14-|
A---------------------------------------------|
E---------------------------------------------|

1---------2---------3---------4---------

e---------13-13-----17-17-----13-13-----12-12-|
B---------------------------------------------|
G----14-14-----14-14-----14-14-----14-14------|
D---------------------------------------------|
A---------------------------------------------|
E---------------------------------------------|

1---------2---------3---------4---------

e---------12-12-----13-13-----13-13-12-12--12-|
B---------------------------------------------|
G----14-14-----14-14-----14-14-----------14---|
D---------------------------------------------|
A---------------------------------------------|
E---------------------------------------------|

1---------2---------3---------4---------

e---------12-12-----13-13-----13-13-12-12--12-|
B---------------------------------------------|
G----14-14-----14-14-----14-14-----------14---|
D---------------------------------------------|
A---------------------------------------------|
E---------------------------------------------|

1---------2---------3---------4---------

e---------12-12-----13-13-----13-13-12-12-----|
B---------------------------------------------|
G----13-13-----13-13-----13-13-----------13---|
D------------------------------------------14-|
A---------------------------------------------|
E---------------------------------------------|

1---------2---------3---------4---------

e---------13-13-----17-17-----13-13-----12----|
B---------------------------------------------|
G----14-14-----14-14-----14-14-----14-14------|
D------------------------------------------14-|
A---------------------------------------------|
E---------------------------------------------|

1---------2---------3---------4---------

e----12---------------------------------------|
B--------------15--------13--------12---------|
G------14-14-14-------------------------------|
D----------------15-15-15--14-14-14--12-12-12-|
A---------------------------------------------|
E---------------------------------------------|

1---------2---------3---------4---------

e---------------------------------------------|
B----13------------------------13--12--10h12--|
G--------12-----------------------------------|
D------------14-------------------------------|
A---------------------------------------------|
E---------------------------------------------|


1---------2---------3---------4---------

e---------------------------------------------|
B----12------------------------12--12--13h15--|
G--------12-----------------------------------|
D------------12-------------------------------|
A---------------------------------------------|
E---------------------------------------------|

1---------2---------3---------4---------

e---------------------------------------------|
B----15------------------------15--13--12h13--|
G--------14-----------------------------------|
D------------15-------------------------------|
A---------------------------------------------|
E---------------------------------------------|

1---------2---------3---------4---------

e---------------------------------------------|
B----13------------------------15--13--12h13--|
G--------14-----------------------------------|
D------------14-------------------------------|
A---------------------------------------------|
E---------------------------------------------|

1---------2---------3---------4---------

e---------------------------------------------|
B----13------------------------13--12--10h12--|
G--------12-----------------------------------|
D------------14-------------------------------|
A---------------------------------------------|
E---------------------------------------------|

1---------2---------3---------4---------

e---------------------------------------------|
B----12------------------------12--12--13b15--|
G--------12-----------------------------------|
D------------12-------------------------------|
A---------------------------------------------|
E---------------------------------------------|

1---------2---------3---------4---------

Note: Carry bent note through to next bar.

e---------------------------------------------|
B------------------------------15--13--12h13--|
G---------------------------------------------|
D--------14-----------------------------------|
A------------15-------------------------------|
E---------------------------------------------|

1---------2---------3---------4---------

.............................cos i want you...

e---------------------------------------------|
B----13---------------------------------------|
G--------14-----------------------------------|
D------------14-----------x-x-x-x-x-x-x-x-x-x-|
A-------------------------x-x-x-x-x-x-x-x-x-x-|
E-------------------------x-x-x-x-x-x-x-x-x-x-|






[[[[[[[[[[[[[[[[[[[ Chorus ]]]]]]]]]]]]]]]]]]]]






...now............................I Want you

1---------2---------3---------4---------

e---------------------------------------------|
B---------------------------------------------|
G----5-----5-5-5----3////5-----5-5-5-5--------|
D----5-----5-5-5----3////5-----5-5-5-5--------|
A----3-----3-3-3----2////3-----3-3-3-3--------|
E---------------------------------------------|
d d u d d d u d u

.....now.....................................

1---------2---------3---------4---------

e---------------------------------------------|
B---------------------------------------------|
G---------------------------------------------|
D----5-----5-5-5----3////5-----5-5-5-5--------|
A----5-----5-5-5----3////5-----5-5-5-5--------|
E----3-----3-3-3----2////3-----3-3-3-3--------|
d d u d d d u d u

......I feel...my...heart....implo-----...

1---------2---------3---------4---------

e---------------------------------------------|
B---------------------------------------------|
G----7-----7-7-7----6////7-----7-7-7-7--------|
D----7-----7-7-7----6////7-----7-7-7-7--------|
A----5-----5-5-5----4////5-----5-5-5-5--------|
E---------------------------------------------|
d d u d d d u d u

...------------------de.and i'm breaking...

1---------2---------3---------4---------

e---------------------------------------------|
B---------------------------------------------|
G---------------------------------------------|
D----7-----7-7-7----6////7-----7-7-7-7-7-7----|
A----7-----7-7-7----6////7-----7-7-7-7-7-7----|
E----5-----5-5-5----4////5-----5-5-5-5-5-5----|
d d u d d d u d u d u

...ou------------------t......escaping....

1---------2---------3---------4---------

e---------------------------------------------|
B---------------------------------------------|
G----5-----5-5-5----3////5-----5-5-5-5--------|
D----5-----5-5-5----3////5-----5-5-5-5--------|
A----3-----3-3-3----2////3-----3-3-3-3--------|
E---------------------------------------------|
d d u d d d u d u

...no------------------w...................

1---------2---------3---------4---------

e---------------------------------------------|
B---------------------------------------------|
G---------------------------------------------|
D----5-----5-5-5----3////5-----5-5-5-5--------|
A----5-----5-5-5----3////5-----5-5-5-5--------|
E----3-----3-3-3----2////3-----3-3-3-3--------|
d d u d d d u d u

......feeling...my..faith....ero-----...

1---------2---------3---------4---------

e---------------------------------------------|
B---------------------------------------------|
G----7-----7-7-7----6////7-----7-7-7-7--------|
D----7-----7-7-7----6////7-----7-7-7-7--------|
A----5-----5-5-5----4////5-----5-5-5-5--------|
E---------------------------------------------|
d d u d d d u d u

...-----------------------------de.........

1---------2---------3---------4---------

e---------------------------------------------|
B---------------------------------------------|
G---------------------------------------------|
D----7-----7-7-7---7-7-7-7-7-7----------------|
A----7-----7-7-7---7-7-7-7-7-7----------------|
E----5-----5-5-5---5-5-5-5-5-5--12//////////0-|
d d u d d u d u d u d
P.M...........

1---------2---------3---------4---------

e---------------------------------------------|
B---------------------------------------------|
G---------------------------------------------|
D---------------------------------------------|
A---------------------------------------------|
E----0-0-12-0-12-13-0-10-0-10-9-0-9-8-0-8-7---|
d u d u d u d u d u d u d u d u d

1---------2---------3---------4---------

e---------------------------------------------|
B---------------------------------------------|
G---------------------------------------------|
D---------------------------------------------|
A---------------------------------------------|
E----0-12-0-12-13-0-10-0-10-9-0-9-8-0-8-7-----|
d u d u d u d u d u d u d u d u

1---------2---------3---------4---------

e---------------------------------------------|
B---------------------------------------------|
G---------------------------------------------|
D---------------------------------------------|
A---------------------------------------------|
E----0-12-0-12-13-0-10-0-10-9-0-9-8-0-8-7-----|
d u d u d u d u d u d u d u d u

1---------2---------3---------4---------

e---------------------------------------------|
B---------------------------------------------|
G---------------------------------------------|
D---------------------------------------------|
A---------------------------------------------|
E----0-12-0-12-13-0-10-0-10-9-0-9-8-0-8-7-----|
d u d u d u d u d u d u d u d u

1---------2---------3---------4---------

e---------------------------------------------|
B---------------------------------------------|
G---------------------------------------------|
D---------------------------------------------|
A---------------------------------------------|
E----0-12-0-12-13-0-10-0-10-9-0-9-8-0-8-7-----|
d u d u d u d u d u d u d u d u

1---------2---------3---------4---------

e---------------------------------------------|
B---------------------------------------------|
G---------------------------------------------|
D---------------------------------------------|
A---------------------------------------------|
E----0-12-0-12-13-0-10-0-10-9-0-9-8-0-8-7\\\0-|
d u d u d u d u d u d u d u d u




Thanks for viewing my tab. Hope you could use it.

E-mail me (plintonio@hotmail.com) to do ANY muse tab and ill try
and get it up on this site for you.
Tunning: Standard (E A D G B e)
Song: Hysteria
Artist: Muse
Album: Absolution

This is as close as I got to perfect, I have the guitar instrumental of
this song, and I'm pretty sure that this is as good as it gets.. hope you
agree!

Edit - You think this looks different to last time you looked at this tab?
Yeah - I formatted it quite a bit (and made a few corrections).

[Intro]
- scratch your plectrum up the E string as below

e|-------------------------------------------|
B|-------------------------------------------|
G|-------------------------------------------|
D|-------------------------------------------|
A|-------------------------------------------|
E|--1//////3//////////6/////////9/////////22-|

You should roughly be this far down the neck for each bar (4 bars long)

Riff - play twice

e|---------------------------------|---------------------------------|
B|----------------------12bu12-10--|----------------------12bu12-10--|
G|--14--14-14-14--14-14------------|--13--13-13-13--13-13------------|
D|--x---x--x--x---x--x-------------|--x---x--x--x---x--x-------------|
A|--12--12-12-12--12-12------------|--11--11-11-11--11-11------------|
E|---------------------------------|---------------------------------|

e|---------------------------------|-----------------------------|---|
B|----------------------12bu12-10--|----------------12bu12bu12bu-|---|
G|--10--10-10-10--10-10------------|--9--9-9-9--9-9--------------|---|
D|--x---x--x--x---x--x-------------|--x--x-x-x--x-x--------------|-7-|
A|--8---8--8--8---8--8-------------|--7--7-7-7--7-7--------------|-7-|
E|---------------------------------|-----------------------------|-5-|
Play this chord second
[Verse 1]
- play this at the end time round, and mute after
half a second.
e|--------------------------------------------------|
B|--------------------------------------------------|
G|--------------------------------------------------|
D|--------------------------------------------------|
A|--14-14-14-14-13-13-13-13-12-12-12-12-11-11-11-11-|
E|--12-12-12-12-11-11-11-11-10-10-10-10-9--9--9--9--|
P.M ...............................................

[Chorus 1]
- play twice...

e|-----------------------------|----------------------------|
B|-----------------------------|----------------------------|
G|--5--5-5-5--4-4-/-5-5--5555--|----------------------------|
D|--5--5-5-5--4-4-/-5-5--5555--|--5--5-5-5--4-4-/-5-5--5555-|
A|--3--3-3-3--2-2-/-3-3--3333--|--5--5-5-5--4-4-/-5-5--5555-|
E|-----------------------------|--3--3-3-3--2-2-/-3-3--3333-|

e|-----------------------------|----------------------------|
B|-----------------------------|----------------------------|
G|--7--7-7-7--6-6-/-7-7--7777--|----------------------------|
D|--7--7-7-7--6-6-/-7-7--7777--|--7--7-7-7--6-6-/-7-7--7777-|
A|--5--5-5-5--4-4-/-5-5--5555--|--7--7-7-7--6-6-/-7-7--7777-|
E|-----------------------------|--5--5-5-5--4-4-/-5-5--5555-|

Replace last bar, second time round with this -

e|-------------------------------------------|
B|-------------------------------------------|
G|-------------------------------------------|
D|-------------------------------------------|
A|-------------------------------------------|
E|--0-0-10-0-10-12-0-15-0-12-0-15-0-12-15h17-|

Riff - play once

Then -
e|---|
B|---|
G|---|
D|-7-| this chord is muted after half a second
A|-7-|
E|-5-|

[Verse 2]
- play this twice...

first time round, the first 4 notes are replaced be the chord above

e|-------------------------------------|------------------------------------------|
B|-------------------------------------|------------------------------------------|
G|-------------------------------------|------------------------------------------|
D|-------------------------------------|------------------------------------------|
A|-0-0-10-0-10-12-0-10-0-7-0-8-8-7-5-7-|------------------------------------------|
E|-------------------------------------|-0-0-10-0-10-12-0-15-0-12-0-15-15-0-15-17-|

e|--------------------------------------|-------------------------------------|
B|--------------------------------------|-------------------------------------|
G|--------------------------------------|-------------------------------------|
D|-0-0-10-0-10-12-0-10-0-10-9-0-9-8-0-8-|-7-----------------------------------|
A|--------------------------------------|---0-10-0-10-12-0-10-0-7-0-8-8-7-5-7-|
E|--------------------------------------|-------------------------------------|

This replaces the last bar second time round -

e|--------------------------------------------------|
B|--------------------------------------------------|
G|--------------------------------------------------|
D|--------------------------------------------------|
A|--14-14-14-14-13-13-13-13-12-12-12-12-11-11-11-11-|
E|--12-12-12-12-11-11-11-11-10-10-10-10-9--9--9--9--|
P.M ...............................................


[Chorus 2]
- same as chorus 1 but the last bar of the whole chorus is -

e|--------------------------|
B|--------------------------|
G|--------------------------|
D|--6/7--7-7--777777--------|
A|--6/7--7-7--777777--------|
E|--4/5--5-5--555555-12-/---|
P.M. ......

Play this 3 times -
e|----------------------------------------|
B|----------------------------------------|
G|-0 on first time then 7 on same string--|
D|-v-other 2 times------------------------|
A|-v--------------------------------------|
E|-0-0-10-0-10-12-0-10-0-10-9-0-9-8-0-8-0-|

Then this straight after
e|-------------------------------------------|
B|-------------------------------------------|
G|-------------------------------------------|
D|-------------------------------------------|
A|-------------------------------------------|
E|-7-0-10-0-10-12-0-15-0-12-0-15-15-12-15-17-|

FULL Solo - Original signal, and a delay set at repeat once, shifted up an octave.

(thanks for solo corrections dishbat)

Section 1 -

e|--------12-12-------13-13-------13-13-12-12----12-|--------12-12-------13-13-------13-13-12-12---(0)-|
B|--------------------------------------------------|--------------------------------------------------|
G|--14-14-------14-14-------14-14-------------14----|--13-13-------13-13-------13-13-------------13----|
D|--------------------------------------------------|-----------------------------------------------14-|
A|--------------------------------------------------|--------------------------------------------------|
E|--------------------------------------------------|--------------------------------------------------|

e|--------12-12-------17-17-------13-13-------12-12-|--------12-12-------13-13-------13-13-12-12----12-|
B|--------------------------------------------------|--------------------------------------------------|
G|--14-14-------14-14-------14-14-------14-14-------|--14-14-------14-14-------14-14-------------14----|
D|--------------------------------------------------|--------------------------------------------------|
A|--------------------------------------------------|--------------------------------------------------|
E|--------------------------------------------------|--------------------------------------------------|

e|--------12-12-------13-13-------13-13-12-12----12-|--------12-12-------13-13-------13-13-12-12---(0)-|
B|--------------------------------------------------|--------------------------------------------------|
G|--14-14-------14-14-------14-14-------------14----|--13-13-------13-13-------13-13-------------13----|
D|--------------------------------------------------|-----------------------------------------------14-|
A|--------------------------------------------------|--------------------------------------------------|
E|--------------------------------------------------|--------------------------------------------------|

e|--------12-12-------17-17-------13-13-------12(0)-|--12----------------------------------------------|
B|--------------------------------------------------|--------------15----------13----------12----------|
G|--14-14-------14-14-------14-14-------14-14-------|-----14-14-14-------------------------------------|
D|-----------------------------------------------14-|-----------------15-15-15----14-14-14----12-12-12-|
A|--------------------------------------------------|--------------------------------------------------|
E|--------------------------------------------------|--------------------------------------------------|


Section 2 -

e|-------------------------------------|-------------------------------------|
B|-13------------------13---12---10h12-|-12------------------12---12---13h15-|
G|------12-----------------------------|------12-----------------------------|
D|-----------14------------------------|-----------12------------------------|
A|-------------------------------------|-------------------------------------|
E|-------------------------------------|-------------------------------------|

e|-------------------------------------|-------------------------------------|
B|-15------------------15---13---12h13-|-13------------------15---13---12h13-|
G|------14-----------------------------|------14-----------------------------|
D|-----------15------------------------|-----------14------------------------|
A|-------------------------------------|-------------------------------------|
E|-------------------------------------|-------------------------------------|

e|-------------------------------------|---------------------------------------|
B|-13------------------12bu12---10h12--|-12------------------12---12---13h15bh-|
G|------12-----------------------------|------12-------------------------------|
D|-----------14------------------------|-----------12--------------------------|
A|-------------------------------------|---------------------------------------|
E|-------------------------------------|---------------------------------------|

e|------------------------------------|----------------------------------------|
G|-(L)----------------15---13---12h13-|-13----------------------13-15-13-------|
B|---------14-------------------------|------14-----------12-14----------14----|
D|------------15----------------------|-----------14---------------------------|
A|------------------------------------|----------------------------------------|
E|------------------------------------|----------------------------------------|
\\very quiet bit//

Section 3 - Played by a second guitar, when matt starts to sing again.
Hard to make out but its there.

e|------------------------------|-----------------------------|
B|-5----------------5---3---1/3-|-3----------------3---3-/-5/-|
G|-----5------------------------|-----4-----------------------|
D|---------5--------------------|---------5-------------------|
A|------------------------------|-----------------------------|
E|------------------------------|-----------------------------|

e|-----------------------------|-----------------------------|
B|-6----------------8---6---5b-|-5u----------------5bu--3--/-|
G|-----7-----------------------|------5----------------------|
D|---------7-------------------|----------7------------------|
A|-----------------------------|-----------------------------|
E|-----------------------------|-----------------------------|

e|------------------------------|-----------------------------|
B|-5----------------5---3---1-/-|-3----------------3---3---5/-|
G|-----5------------------------|-----4-----------------------|
D|---------5--------------------|---------5-------------------|
A|------------------------------|-----------------------------|
E|------------------------------|-----------------------------|

e|-----------------------------|-----------------------------|
B|-6----------------8---6---5b-|-5u--------------------------|
G|-----7-----------------------|------5----------------------|
D|---------7-------------------|----------7------------------|
A|-----------------------------|-----------------------------|
E|-----------------------------|-----------------------------|


Ending - do this 5 times...

e|----------------------------------------|
B|----------------------------------------|
G|-0 on first time then 7 on same string--|
D|-v-other 4 times------------------------|
A|-v--------------------------------------|
E|-0-0-10-0-10-12-0-10-0-10-9-0-9-8-0-8-0-|

...then this once

e|--------------------------------------------|
B|--------------------------------------------|
G|--------------------------------------------|
D|--------------------------------------------|
A|--------------------------------------------|
E|-7-0-10-0-10-12-0-10-0-10-9-0-9-8-0-8-0-7\0-|

Then you're finished.

This was real good fun tabbing this, hope you enjoy it as much as I've been tabbing for
these 3 days (don't be harsh, this is my first:D). - Muse_freek


************************************

Legend –
x - muted note
/ - slide up/down
h - hammer-on
p - pull-off
b - bend
bu - bend and bend back
P.M... - palm muting
() - Alternative note

************************************
Song info
Hysteria
Muse
2003
  • Rock
  • Alternative Rock
Alternative tracks
Similar songs
Can You Take Me - Third Eye Blind
Bleed It Out - Linkin Park
Your Universe - Rico Blanco

Hi! Hope you enjoy backing track experience.
If you want to help us in the development of the project, feel free to donate!