Stockholm Syndrome - Muse
00:00 / 00:00
Tabs and lyrics
Tunning: Standard (E A D G B e)
#----------------------------------PLEASE NOTE|--------------------------------#
#This file is the author's own work and represents their interpretation of the #
#song. You may only use this file for private study, scholarship, or research. #
#------------------------------------------------------------------------------#

Artist: Muse
Song: Stockholm Syndrome
Album: Sing For Absolution
Transcribed By: James Ward
E|mail: micro_cuts@hotmail.com - any questions or anything, just mail me.
Date: 14/07/2003
Notes: please don't rip it! But, to the best of my knowledge, this is 100% accurate.

24/07/2003 - Update: It was nearly 100% but now it should be totally.
cheers qotsa4@hotmail.com & hex37@hotmail.com

Tuning: Drop 'D' (DADGBe) NOT Eb!!!!!

there seems to be some confusion about what key this is in, it is D, the version
many people have download is a sped up version with the pitch raised.

Fuzz distortion
E|----------------------|-----------------------|-----------------------|-----------------------|
B|----------------------|-----------------------|-----------------------|-----------------------|
G|----------------------|-----------------------|-----------------------|-----------------------|
D|----------------------|-----------------------|-----------------------|-----------------------|
D|----------------------|-----------------------|-----------------------|-----------------------|
D|12-0-13-0-12-0-10h12--|-0-0-13-0-12-0-10h12---|-0-0-13-0-12-0-10h12---|-0-0-13-0-16h17p16-0---|



E|----------------------|-----------------------|---------------------------|-----------------------|
B|----------------------|-----------------------|---------------------------|-----------------------|
G|----------------------|-----------------------|---------------------------|-----------------------|
D|----------------------|-----------------------|---------------------------|-----------------------|
D|----------------------|-----------------------|---------------------------|-----------------------|
D|12-0-13-0-12-0-10h12--|-0-0-13-0-12-0-10h12---|--0-0-[10-10-10-10-10]--0--|-[10-10-10]0[10-10-10]-| <--[all
harmonics]



E|----------------------|-----------------------|-----------------------|-----------------------|
B|----------------------|-----------------------|-----------------------|-----------------------|
G|----------------------|-----------------------|-----------------------|-----------------------|
D|----------------------|-----------------------|-----------------------|-----------------------|
D|----------------------|-----------------------|-----------------------|-----------------------|
D|12-0-13-0-12-0-10h12--|-0-0-13-0-12-0-10h12---|-0-0-13-0-12-0-10h12---|-0-0-13-0-16h17p16-0---|



E|----------------------|-----------------------|-----------------------|-----------------------|
B|----------------------|-----------------------|-----------------------|-----------------------|
G|----------------------|-----------------------|-----------------------|-----------------------|
D|----------------------|-----------------------|-----------------------|-----------------------|
D|----------------------|-----------------------|-----------------------|-----------------------|
D|12-0-13-0-12-0-10h12--|-0-0-13-0-12-0-10h12---|-0-0-13-0-12-0-10h12---|-0-0-13-0-16h17p16-0---|



E|----------------------|-----------------------|-----------------------|-----------------------|
B|----------------------|-----------------------|-----------------------|-----------------------|
G|----------------------|-----------------------|-----------------------|-----------------------|
D|----------------------|-----------------------|-----------------------|-----------------------|
D|----------------------|-----------------------|-----------------------|-----------------------|
D|12-0-13-0-12-0-10h12--|-0-0-13-0-12-0-10h12---|-0-0-13-0-12-0-10h12---|-0-0-13-0-16h17p16-0---|



E|----------------------|-----------------------|-----------------------|-----------------------|
B|----------------------|-----------------------|-----------------------|-----------------------|
G|----------------------|-----------------------|-----------------------|-----------------------|
D|----------------------|-----------------------|-----------------------|-----------------------|
D|----------------------|-----------------------|-----------------------|-----------------------|
D|12-0-13-0-12-0-10h12--|-0-0-13-0-12-0-10h12---|-0-0-13-0-12-0-10h12---|-0-0-13-0-16h17p16-0---|


@@@@@@@@@@@@@@@@@@@@@@@@@@@@@@@@@@@@@

Cleaner, perfect intonation required else it sounds pretty poor.

E|----------------------|-----------------------|-----------------------|-----------------------|
B|6-(x16)---------------|-5-(x16)---------------|-3-(x16)---------------|-3-(x16)---------------|
G|7---------------------|-5---------------------|-4---------------------|-3---------------------|
D|x---------------------|-x---------------------|-x---------------------|-x---------------------|
D|5---------------------|-3---------------------|-2---------------------|-1---------------------|
D|----------------------|-----------------------|-----------------------|-----------------------|



E|----------------------|-----------------------|-----------------------|-----------------------|
B|6-(x16)---------------|-5-(x16)---------------|-5-(x16)---------------|-6-(x16)---------------|
G|7---------------------|-6---------------------|-5---------------------|-7---------------------|
D|x---------------------|-x---------------------|-x---------------------|-x---------------------|
D|5---------------------|-4---------------------|-3---------------------|-5---------------------|
D|----------------------|-----------------------|-----------------------|-----------------------|



E|----------------------|-----------------------|-----------------------|-----------------------|
B|11-(x16)--------------|-10-(x16)--------------|-8-(x16)---------------|-8-(x16)---------------|
G|12--------------------|-10--------------------|-9---------------------|-8---------------------|
D|x---------------------|-x---------------------|-x---------------------|-x---------------------|
D|10--------------------|-8---------------------|-7---------------------|-6---------------------|
D|----------------------|-----------------------|-----------------------|-----------------------|



E|----------------------|-----------------------|-----------------------|-----------------------|
B|8-(x16)---------------|-8-(x16)---------------|-10-(x16)--------------|-10-(x16)--------------|
G|9---------------------|-9---------------------|-9---------------------|-9---------------------|
D|x---------------------|-x---------------------|-x---------------------|-x---------------------|
D|7---------------------|-7---------------------|-7---------------------|-7---------------------|
D|----------------------|-----------------------|-----------------------|-----------------------|

@@@@@@@@@

E|----------------------|-----------------------|-----------------------|-----------------------|
B|6-(x16)---------------|-5-(x16)---------------|-3-(x16)---------------|-3-(x16)---------------|
G|7---------------------|-5---------------------|-4---------------------|-3---------------------|
D|x---------------------|-x---------------------|-x---------------------|-x---------------------|
D|5---------------------|-3---------------------|-2---------------------|-1---------------------|
D|----------------------|-----------------------|-----------------------|-----------------------|



E|----------------------|-----------------------|-----------------------|-----------------------|
B|6-(x16)---------------|-5-(x16)---------------|-5-(x16)---------------|-6-(x16)---------------|
G|7---------------------|-6---------------------|-5---------------------|-7---------------------|
D|x---------------------|-x---------------------|-x---------------------|-x---------------------|
D|5---------------------|-4---------------------|-3---------------------|-5---------------------|
D|----------------------|-----------------------|-----------------------|-----------------------|



E|----------------------|-----------------------|-----------------------|-----------------------|
B|11-(x16)--------------|-10-(x16)--------------|-8-(x16)---------------|-8-(x16)---------------|
G|12--------------------|-10--------------------|-9---------------------|-8---------------------|
D|x---------------------|-x---------------------|-x---------------------|-x---------------------|
D|10--------------------|-8---------------------|-7---------------------|-6---------------------|
D|----------------------|-----------------------|-----------------------|-----------------------|



E|----------------------|-----------------------|-----------------------|-----------------------|
B|8-(x16)---------------|-8-(x16)---------------|-10-(x16)--------------|-10-(x8)---------------|
G|9---------------------|-9---------------------|-9---------------------|-9---------------------|
D|x---------------------|-x---------------------|-x---------------------|-x---(finish bar with--|
D|7---------------------|-7---------------------|-7---------------------|-7-----the loud bit----|
D|----------------------|-----------------------|-----------------------|-----------below)------|


@@@@@@@@@@@@@@@@@@@@@@@@@@@@@@@@@@@@@

(LOUD! - uses a zvex fuzz factory and maybe a 'big muff'?)
E|----------------------|
B|----------------------|
G|----------------------|
D|x-x--5------4---------|
D|x-x--5------4---------|
E|x-x--5------4---------|


E|----------------------|-----------------------|-----------------------|-----------------------|
B|----------------------|-----------------------|-----------------------|-----------------------|
G|----------------------|-----------------------|-----------------------|-----------------------|
D|-3-(x8)---------------|--3-(x8)---------------|--3-(x8)---------------|--3-(x8)---------------|
D|-3--------------------|--3--------------------|--3--------------------|--3--------------------|
D|-3--------------------|--3--------------------|--3--------------------|--3--------------------|

(substitute for piano (which arpeggios and adlibs through the same chords) - slight distortion,
much quieter) (For pianists - Left hand does Chords, right hand arpeggios up and down --> but you
probably knew that)

E|----------------------|-----------------------|-----------------------|-----------------------|
B|----------------------|-----------------------|-----------------------|-----------------------|
G|----------------------|-----------------------|-----------------------|-----------------------|
D|-3-(x8)---------------|--3-(x8)---------------|--2-(x8)---------------|--2-(x8)---------------|
D|-3--------------------|--3--------------------|--2--------------------|--2--------------------|
D|-3--------------------|--3--------------------|--2--------------------|--2--------------------|


E|----------------------|-----------------------|-----------------------|-----------------------|
B|----------------------|-----------------------|-----------------------|-----------------------|
G|----------------------|-----------------------|-----------------------|-----------------------|
D|-0-(x8)---------------|--0-(x8)---------------|--0-(x8)---------------|--0-(x8)---------------|
D|-0--------------------|--0--------------------|--0--------------------|--0--------------------|
D|-0--------------------|--0--------------------|--0--------------------|--0--------------------|


E|----------------------|-----------------------|-----------------------|-----------------------|
B|----------------------|-----------------------|-----------------------|-----------------------|
G|----------------------|-----------------------|-----------------------|-----------------------|
D|-3-(x8)---------------|--3-(x8)---------------|--2-(x8)---------------|--2-(x8)---------------|
D|-3--------------------|--3--------------------|--2--------------------|--2--------------------|
D|-3--------------------|--3--------------------|--2--------------------|--2--------------------|


E|----------------------|-----------------------|-----------------------|-----------------------|
B|----------------------|-----------------------|-----------------------|-----------------------|
G|----------------------|-----------------------|-----------------------|-----------------------|
D|-0-(x8)---------------|--0-(x8)---------------|--8-(x8)---------------|--8-(x8)---------------|
D|-0--------------------|--0--------------------|--8--------------------|--8--------------------|
D|-0--------------------|--0--------------------|--8--------------------|--8--------------------|


!Heavy!


E|----------------------|-----------------------|
B|----------------------|-----------------------|
G|----------------------|-----------------------|
D|-3-(x8)----6-(x8)-----|--7-(x8)-10-(x4)-11-12-|
D|-3---------6----------|--7------10------11-12-|
D|-3---------6----------|--7------10------11-12-|




E|----------------------|-----------------------|----------------------------|--------------|
B|----------------------|-----------------------|----------------------------|--------------|
G|----------------------|-----------------------|----------------------------|--------------|
D|----------------------|-----------------------|----------------------------|--------------|
D|----------------------|-----------------------|----------------------------|--------------|
D|12-0-13-0-12-0-10h12--|-0-0-13-0-12-0-10h12-0-|-0-[10]-0-[10]-0-[10]-0-[10]|-0-0-[10]-----| <-- [all
harmonics]


@@@@@@@@@@@@@@@@@@@@@@@@@@@@@@@@@@@@@@@@@@@@

Cleaner

E|----------------------|-----------------------|-----------------------|-----------------------|
B|6-(x16)---------------|-5-(x16)---------------|-3-(x16)---------------|-3-(x16)---------------|
G|7---------------------|-5---------------------|-4---------------------|-3---------------------|
D|x---------------------|-x---------------------|-x---------------------|-x---------------------|
D|5---------------------|-3---------------------|-2---------------------|-1---------------------|
D|----------------------|-----------------------|-----------------------|-----------------------|



E|----------------------|-----------------------|-----------------------|-----------------------|
B|6-(x16)---------------|-5-(x16)---------------|-5-(x16)---------------|-6-(x16)---------------|
G|7---------------------|-6---------------------|-5---------------------|-7---------------------|
D|x---------------------|-x---------------------|-x---------------------|-x---------------------|
D|5---------------------|-4---------------------|-3---------------------|-5---------------------|
D|----------------------|-----------------------|-----------------------|-----------------------|



E|----------------------|-----------------------|-----------------------|-----------------------|
B|11-(x16)--------------|-10-(x16)--------------|-8-(x16)---------------|-8-(x16)---------------|
G|12--------------------|-10--------------------|-9---------------------|-8---------------------|
D|x---------------------|-x---------------------|-x---------------------|-x---------------------|
D|10--------------------|-8---------------------|-7---------------------|-6---------------------|
D|----------------------|-----------------------|-----------------------|-----------------------|



E|----------------------|-----------------------|-----------------------|-----------------------|
B|8-(x16)---------------|-8-(x16)---------------|-10-(x16)--------------|-10-(x6)---------------|
G|9---------------------|-9---------------------|-9---------------------|-9---------------------|
D|x---------------------|-x---------------------|-x---------------------|-x---(finish bar with--|
D|7---------------------|-7---------------------|-7---------------------|-7----the loud bit)----|
D|----------------------|-----------------------|-----------------------|----------below)-------|



@@@@@@@@@@@@@@@@@@@@@@@@@@@@@@@@@@@@@

(LOUD! - uses a zvex fuzz factory and maybe a 'big muff'?)
E|----------------------|
B|----------------------|
G|----------------------|
D|x-x--5------4---------|
D|x-x--5------4---------|
E|x-x--5------4---------|


E|----------------------|-----------------------|-----------------------|-----------------------|
B|----------------------|-----------------------|-----------------------|-----------------------|
G|----------------------|-----------------------|-----------------------|-----------------------|
D|-3-(x8)---------------|--3-(x8)---------------|--3-(x8)---------------|--3-(x8)---------------|
D|-3--------------------|--3--------------------|--3--------------------|--3--------------------|
D|-3--------------------|--3--------------------|--3--------------------|--3--------------------|

(substitute for piano (which arpeggios and adlibs through the same chords)
- slight distortion, much quieter)

E|----------------------|-----------------------|-----------------------|-----------------------|
B|----------------------|-----------------------|-----------------------|-----------------------|
G|----------------------|-----------------------|-----------------------|-----------------------|
D|-3-(x8)---------------|--3-(x8)---------------|--2-(x8)---------------|--2-(x8)---------------|
A|-3--------------------|--3--------------------|--2--------------------|--2--------------------|
D|-3--------------------|--3--------------------|--2--------------------|--2--------------------|


E|----------------------|-----------------------|-----------------------|-----------------------|
B|----------------------|-----------------------|-----------------------|-----------------------|
G|----------------------|-----------------------|-----------------------|-----------------------|
D|-0-(x8)---------------|--0-(x8)---------------|--0-(x8)---------------|--0-(x8)---------------|
D|-0--------------------|--0--------------------|--0--------------------|--0--------------------|
D|-0--------------------|--0--------------------|--0--------------------|--0--------------------|


E|----------------------|-----------------------|-----------------------|-----------------------|
B|----------------------|-----------------------|-----------------------|-----------------------|
G|----------------------|-----------------------|-----------------------|-----------------------|
D|-3-(x8)---------------|--3-(x8)---------------|--2-(x8)---------------|--2-(x8)---------------|
D|-3--------------------|--3--------------------|--2--------------------|--2--------------------|
D|-3--------------------|--3--------------------|--2--------------------|--2--------------------|


E|----------------------|-----------------------|-----------------------|-----------------------|
B|----------------------|-----------------------|-----------------------|-----------------------|
G|----------------------|-----------------------|-----------------------|-----------------------|
D|-0-(x8)---------------|--0-(x8)---------------|--8-(x8)---------------|--8-(x8)---------------|
D|-0--------------------|--0--------------------|--8--------------------|--8--------------------|
D|-0--------------------|--0--------------------|--8--------------------|--8--------------------|


!Heavy!


E|----------------------|-----------------------|
B|----------------------|-----------------------|
G|----------------------|-----------------------|
D|-3-(x8)----6-(x8)-----|--7-(x8)-10-(x4)-11-12-|
D|-3---------6----------|--7------10------11-12-|
D|-3---------6----------|--7------10------11-12-|


E|----------------------|-----------------------|-----------------------|-----------------------|
B|----------------------|-----------------------|-----------------------|-----------------------|
G|----------------------|-----------------------|-----------------------|-----------------------|
D|----------------------|-----------------------|-----------------------|-----------------------|
D|----------------------|-----------------------|-----------------------|-----------------------|
D|12-0-13-0-12-0-10h12--|-0-0-13-0-12-0-10h12---|-0-0-13-0-12-0-10h12---|-0-0-13-0-16h17p16-0---|

E|----------------------|-----------------------|-------------------------|-----------------------|
B|----------------------|-----------------------|-------------------------|-----------------------|
G|----------------------|-----------------------|-------------------------|-----------------------|
D|----------------------|-----------------------|-------------------------|-----------------------|
D|----------------------|-----------------------|-------------------------|-----------------------|
D|12-0-13-0-12-0-10h12--|-0-0-13-0-12-0-10h12---|--0-[10-10-10-10-10]--0--|-[10-10-10]0[10-10-10]-| <-- [all
harmonics]




E|----------------------|-----------------------|-----------------------|-----------------------| Wah (Closed)
B|----------------------|-----------------------|-----------------------|-----------------------| |
G|----------------------|-----------------------|-----------------------|-----------------------| |
D|----------------------|-----------------------|-----------------------|-----------------------| |
D|----------------------|-----------------------|-----------------------|-----------------------| |
D|12-0-13-0-12-0-10h12--|-0-0-13-0-12-0-10h12---|-0-0-13-0-12-0-10h12---|-0-0-13-0-12-0-10h12---| |
|
|
E|----------------------|-----------------------|-----------------------|-----------------------| |
B|----------------------|-----------------------|-----------------------|-----------------------| |
G|----------------------|-----------------------|-----------------------|-----------------------| |
D|----------------------|-----------------------|-----------------------|-----------------------| |
D|----------------------|-----------------------|-----------------------|-----------------------| |
D|12-0-13-0-12-0-10h12--|-0-0-13-0-12-0-10h12---|-0-0-13-0-12-0-10h12---|-0-0-13-0-12-0-10h12---| |
|
|
E|----------------------|-----------------------|-----------------------|-----------------------| |
B|----------------------|-----------------------|-----------------------|-----------------------| |
G|----------------------|-----------------------|-----------------------|-----------------------| |
D|----------------------|-----------------------|-----------------------|-----------------------| |
D|----------------------|-----------------------|-----------------------|-----------------------| |
D|12-0-13-0-12-0-10h12--|-0-0-13-0-12-0-10h12---|-0-0-13-0-12-0-10h12---|-0-0-13-0-12-0-10h12---| |
|
|
E|----------------------|-----------------------|-----------------------|-----------------------| |
B|----------------------|-----------------------|-----------------------|-----------------------| |
G|----------------------|-----------------------|-----------------------|-----------------------| |
D|----------------------|-----------------------|-----------------------|-----------------------| |
D|----------------------|-----------------------|-----------------------|-----------------------| |
D|12-0-13-0-12-0-10h12--|-0-0-13-0-12-0-10h12---|-0-0-13-0-12-0-10h12---|-0-0-13-0-12-0-10h12---| (open)
|
|
E|--------------------------------|---------------------------------| |
B|--------------------------------|---------------------------------| |
G|--------------------------------|---------------------------------| |
D|8-8-5-5-0-0-8-8-5-5-0-0-8-8-5-5-|-7-7-3-3-0-0-7-7-3-3-0-0-7-7-3-3-| |
D|--------------------------------|---------------------------------| |
D|--------------------------------|---------------------------------| |
|
|
E|--------------------------------|---------------------------------| |
B|--------------------------------|---------------------------------| |
G|--------------------------------|---------------------------------| |
D|5-5-2-2-0-0-5-5-2-2-0-0-5-5-2-2-|-5-5-1-1-0-0-5-5-1-1-0-0-5-5-1-1-| |
D|--------------------------------|---------------------------------| |
D|--------------------------------|---------------------------------| (Closed)

Fast picking (yes, more)

E|----------------------|-----------------------|-----------------------|-----------------------|
B|----------------------|-----------------------|-----------------------|-----------------------|
G|----------------------|-----------------------|-----------------------|-----------------------|
D|-7-0-8-0-7-0-5h7------|--0-0-8-0-7-0-5h7------|--0-0-8-0-7-0-5h7------|--0-0-8-0-7-0-5h7------|
D|----------------------|-----------------------|-----------------------|-----------------------|
D|----------------------|-----------------------|-----------------------|-----------------------|

E|----------------------|-----------------------|-----------------------|
B|----------------------|-----------------------|-----------------------|
G|----------------------|-----------------------|-----------------------|
D|-0-0-8-0-7-0-5h7------|--0-0-8-0-7-0-5h7------|---[10--10--10--10]----|
D|----------------------|-----------------------|---[10--10--10--10]----|
D|----------------------|-----------------------|---[10--10--10--10]----|


@@@@@@@@@@@@@@@@@@@@@@@@@@@@@@@@@@@@@

(LOUD! - uses a zvex fuzz factory and maybe a 'big muff'?)
E|----------------------|
B|----------------------|
G|----------------------|
D|---5--------4---------|
D|---5--------4---------|
E|---5--------4---------|


(substitute for piano (which arpeggios and adlibs through the same chords)
- slight distortion, much quieter)

E|----------------------|-----------------------|-----------------------|-----------------------|
B|----------------------|-----------------------|-----------------------|-----------------------|
G|----------------------|-----------------------|-----------------------|-----------------------|
D|-3-(x8)---------------|--3-(x8)---------------|--2-(x8)---------------|--2-(x8)---------------|
D|-3--------------------|--3--------------------|--2--------------------|--2--------------------|
D|-3--------------------|--3--------------------|--2--------------------|--2--------------------|


E|----------------------|-----------------------|-----------------------|-----------------------|
B|----------------------|-----------------------|-----------------------|-----------------------|
G|----------------------|-----------------------|-----------------------|-----------------------|
D|-0-(x8)---------------|--0-(x8)---------------|--0-(x8)---------------|--0-(x8)---------------|
D|-0--------------------|--0--------------------|--0--------------------|--0--------------------|
D|-0--------------------|--0--------------------|--0--------------------|--0--------------------|


E|----------------------|-----------------------|-----------------------|-----------------------|
B|----------------------|-----------------------|-----------------------|-----------------------|
G|----------------------|-----------------------|-----------------------|-----------------------|
D|-3-(x8)---------------|--3-(x8)---------------|--2-(x8)---------------|--2-(x8)---------------|
D|-3--------------------|--3--------------------|--2--------------------|--2--------------------|
D|-3--------------------|--3--------------------|--2--------------------|--2--------------------|


E|----------------------|-----------------------|-----------------------|-----------------------|
B|----------------------|-----------------------|-----------------------|-----------------------|
G|----------------------|-----------------------|-----------------------|-----------------------|
D|-0-(x8)---------------|--0-(x8)---------------|--8-(x8)---------------|--8-(x8)---------------|
D|-0--------------------|--0--------------------|--8--------------------|--8--------------------|
D|-0--------------------|--0--------------------|--8--------------------|--8--------------------|


! Heavy ! HEAVY ! (jump around)


E|----------------------|-----------------------|
B|----------------------|-----------------------|
G|----------------------|-----------------------|
D|-3-(x8)----6-(x8)-----|--7-(x8)-10-(x4)-11-12-|
D|-3---------6----------|--7------10------11-12-|
D|-3---------6----------|--7------10------11-12-|

E|----------------------|-----------------------|
B|----------------------|-----------------------|
G|----------------------|-----------------------|
D|-3-(x8)----6-(x8)-----|--7-(x8)-10-(x4)-11-12-|
D|-3---------6----------|--7------10------11-12-|
D|-3---------6----------|--7------10------11-12-|

E|----------------------|-----------------------|-----------------------|-----------------------|
B|----------------------|-----------------------|-----------------------|-----------------------|
G|----------------------|-----------------------|-----------------------|-----------------------|
D|-0-0-13-0-12-0-10-12--|--0-0-13-0-12-0-10-12--|--0-0-13-0-12-0-10-12--|--0-0-13-0-12-0-10-12--|
D|-0-0-13-0-12-0-10-12--|--0-0-13-0-12-0-10-12--|--0-0-13-0-12-0-10-12--|--0-0-13-0-12-0-10-12--|
D|-0-0-13-0-12-0-10-12--|--0-0-13-0-12-0-10-12--|--0-0-13-0-12-0-10-12--|--0-0-13-0-12-0-10-12--|

E|----------------------|-----------------------|-----------------------|-----------------------|
B|----------------------|-----------------------|-----------------------|-----------------------|
G|----------------------|-----------------------|-----------------------|-----------------------|
D|-0-0-13-0-12-0-10-12--|--0-0-13-0-12-0-10-12--|--0-0-13-0-12-0-10-12--|--0-0-13-0-12-0-10-12--|
D|-0-0-13-0-12-0-10-12--|--0-0-13-0-12-0-10-12--|--0-0-13-0-12-0-10-12--|--0-0-13-0-12-0-10-12--|
D|-0-0-13-0-12-0-10-12--|--0-0-13-0-12-0-10-12--|--0-0-13-0-12-0-10-12--|--0-0-13-0-12-0-10-12--|

E|----------------------|
B|----------------------|
G|----------------------|
D|- 0 --> --------------|
D|- 0 --> --------------|
D|- 0 --> --------------|



************************************

| x Dead note
| h Hammer-on
| p Pull-off

************************************
Tunning: Standard (E A D G B e)
ok, this is right, i've only seen one tab that got the main riff correct on this
site, and its got a crappy rating cos the rest of it isnt right. so here it is
(this is right, i should know cos i've got a very good source)

tabbed by liam cameron
e-mail @ spiderliam_1629@hotmail.com

Tuning: Drop 'D' (DADGBe)

Fuzz distortion

intro / main riff
e--------------------------------------------------------------------|
B--------------------------------------------------------------------|
G--------------------------------------------------------------------|
D--------------------------------------------------------------------|
A--------------------------------------------------------------------|
D-12-13-12-10h12-13-12-10h12-13-12-10h12-13-12-10h12-16h17p16--------|


Verse 1+2
e-----------------------|-------------------|-----------------------|-----------------------|
B-6-(x16)---------------|-5-(x16)-----------|-3-(x16)---------------|-3-(x16)---------------|
G-7---------------------|-5-----------------|-4---------------------|-3---------------------|
D-x---------------------|-x-----------------|-x---------------------|-x---------------------|
A-5---------------------|-3-----------------|-2---------------------|-1---------------------|
D-----------------------|-------------------|-----------------------|-----------------------|
1. I wont stand in your way
2.Look to the stars

e-----------------------|-------------------|-----------------------|-----------------------|
B-6-(x16)---------------|-5-(x16)-----------|-5-(x16)---------------|-6-(x16)---------------|
G-7---------------------|-6-----------------|-5---------------------|-7---------------------|
D-x---------------------|-x-----------------|-x---------------------|-x---------------------|
A-5---------------------|-4-----------------|-3---------------------|-5---------------------|
D-----------------------|-------------------|-----------------------|-----------------------|
1. Let your hatred grow
2. Let hope burn in your eyes


e-----------------------|-------------------|-----------------------|-----------------------|
B-11-(x16)--------------|-10-(x16)----------|-8-(x16)---------------|-8-(x16)---------------|
G-12--------------------|-10----------------|-9---------------------|-8---------------------|
D-x---------------------|-x-----------------|-x---------------------|-x---------------------|
A-10--------------------|-8-----------------|-7---------------------|-6---------------------|
D-----------------------|-------------------|-----------------------|-----------------------|
1. And she'll scream and she'll shout and she'll pray
2. And we'll love and we'll hope and we'll die


e-----------------------|-----------------------|-----------------------|-------------------|
B-8-(x16)---------------|-8-(x16)---------------|-10-(x16)--------------|-10-(x16)----------|
G-9---------------------|-9---------------------|-9---------------------|-9-----------------|
D-x---------------------|-x---------------------|-x---------------------|-x-----------------|
A-7---------------------|-7---------------------|-7---------------------|-7-----------------|
D-----------------------|-----------------------|-----------------------|-------------------|
1. And she had a name yeah, she had a name
2. All to no avail. All to no avail. (straight to bridge then piano part)


e-----------------------|-----------------------|-----------------------|-------------------|
B-6-(x16)---------------|-5-(x16)---------------|-3-(x16)---------------|-3-(x16)-----------|
G-7---------------------|-5---------------------|-4---------------------|-3-----------------|
D-x---------------------|-x---------------------|-x---------------------|-x-----------------|
A-5---------------------|-3---------------------|-2---------------------|-1-----------------|
D-----------------------|-----------------------|-----------------------|-------------------|
1. i wont hold you back


e-----------------------|-----------------------|-----------------------|-------------------|
B-6-(x16)---------------|-5-(x16)---------------|-5-(x16)---------------|-6-(x16)-----------|
G-7---------------------|-6---------------------|-5---------------------|-7-----------------|
D-x---------------------|-x---------------------|-x---------------------|-x-----------------|
A-5---------------------|-4---------------------|-3---------------------|-5-----------------|
D-----------------------|-----------------------|-----------------------|-------------------|
1. Let your anger rise



e-----------------------|-----------------------|-----------------------|-------------------|
B-11-(x16)--------------|-10-(x16)--------------|-8-(x16)---------------|-8-(x16)-----------|
G-12--------------------|-10--------------------|-9---------------------|-8-----------------|
D-x---------------------|-x---------------------|-x---------------------|-x-----------------|
A-10--------------------|-8---------------------|-7---------------------|-6-----------------|
D-----------------------|-----------------------|-----------------------|-------------------|
1. And we'll fly and we'll fall and we'll burn


e-----------------------|-----------------------|-----------------------|-------------------|
B-8-(x16)---------------|-8-(x16)---------------|-10-(x16)--------------|-10-(x16)----------|
G-9---------------------|-9---------------------|-9---------------------|-9-----------------|
D-x---------------------|-x---------------------|-x---------------------|-x-----------------|
A-7---------------------|-7---------------------|-7---------------------|-7-----------------|
D-----------------------|-----------------------|-----------------------|-------------------|
1. No-one will recall. No-one will recall




(LOUD! - uses a zvex fuzz factory and maybe a 'big muff'?)
e---------------|---------|---------|---------|---------|
B---------------|---------|---------|---------|---------|
G---------------|---------|---------|---------|---------|
D----5--------4-|--3-(x8)-|--3-(x8)-|--3-(x8)-|--3-(x8)-|
A----5--------4-|--3------|--3------|--3------|--3------|
E----5--------4-|--3------|--3------|--3------|--3------|


(substitute for piano - slight distortion, much quieter)
e-----------------------|-------------------|-----------------------|-------------------|
B-----------------------|-------------------|-----------------------|-------------------|
G-----------------------|-------------------|-----------------------|-------------------|
D--3-(x8)---------------|--3-(x8)-----------|--2-(x8)---------------|--2-(x8)-----------|
A--3--------------------|--3----------------|--2--------------------|--2----------------|
D--3--------------------|--3----------------|--2--------------------|--2----------------|
(this is the last time........)

e-----------------------|-------------------|-----------------------|-------------------|
B-----------------------|-------------------|-----------------------|-------------------|
G-----------------------|-------------------|-----------------------|-------------------|
D--0-(x8)---------------|--0-(x8)-----------|--0-(x8)---------------|--0-(x8)-----------|
A--0--------------------|--0----------------|--0--------------------|--0----------------|
D--0--------------------|--0----------------|--0--------------------|--0----------------|


e-----------------------|-------------------|-----------------------|-------------------|
B-----------------------|-------------------|-----------------------|-------------------|
G-----------------------|-------------------|-----------------------|-------------------|
D--3-(x8)---------------|--3-(x8)-----------|--2-(x8)---------------|--2-(x8)-----------|
A--3--------------------|--3----------------|--2--------------------|--2----------------|
D--3--------------------|--3----------------|--2--------------------|--2----------------|


e-----------------------|-------------------|-----------------------|-------------------|
B-----------------------|-------------------|-----------------------|-------------------|
G-----------------------|-------------------|-----------------------|-------------------|
D--0-(x8)---------------|--0-(x8)-----------|--8-(x8)---------------|--8-(x8)-----------|
A--0--------------------|--0----------------|--8--------------------|--8----------------|
D--0--------------------|--0----------------|--8--------------------|--8----------------|
(i wish i could....)

e-----------------------|-----------------------|
B-----------------------|-----------------------|
G-----------------------|-----------------------|
D--3-(x8)----6-(x8)-----|--7-(x8)-10-(x4)-11-12-|
A--3---------6----------|--7------10------11-12-|
D--3---------6----------|--7------10------11-12-|

1st time
e-----------------------------------------------|
B-----------------------------------------------|
G-----------------------------------------------|
D-----------------------------------------------|
A-----------------------------------------------|
D-12-13-12-10h12-13-12-10h12-x-10-x-10-x-10-----|

2nd time
e--------------------------------------------------------------|
B--------------------------------------------------------------|
G--------------------------------------------------------------|
D--------------------------------------------------------------|
A--------------------------------------------------------------|
D-12-13-12-10h12-13-12-10h12-13-12-10h12-13-12-10h12-16h17p16--|

e-----------------------|-----------------------|
B-----------------------|-----------------------|
G-----------------------|-----------------------|
D--3-(x8)----6-(x8)-----|--7-(x8)-10-(x4)-11-12-|
A--3---------6----------|--7------10------11-12-|
D--3---------6----------|--7------10------11-12-|




e-----------------------|-----------------------|
B-----------------------|-----------------------|
G-----------------------|-----------------------|
D--3-(x8)----6-(x8)-----|--7-(x8)-10-(x4)-11-12-|
A--3---------6----------|--7------10------11-12-|
D--3---------6----------|--7------10------11-12-|

play this at the end of the song
e----------------------|---------------------|---------------------|---------------------|
B----------------------|---------------------|---------------------|---------------------|
G----------------------|---------------------|---------------------|---------------------|
D--0-0-13-0-12-0-10-12-|-0-0-13-0-12-0-10-12-|-0-0-13-0-12-0-10-12-|-0-0-13-0-12-0-10-12-|
A--0-0-13-0-12-0-10-12-|-0-0-13-0-12-0-10-12-|-0-0-13-0-12-0-10-12-|-0-0-13-0-12-0-10-12-|
D--0-0-13-0-12-0-10-12-|-0-0-13-0-12-0-10-12-|-0-0-13-0-12-0-10-12-|-0-0-13-0-12-0-10-12-|

e----------------------|---------------------|---------------------|---------------------|
B----------------------|---------------------|---------------------|---------------------|
G----------------------|---------------------|---------------------|---------------------|
D--0-0-13-0-12-0-10-12-|-0-0-13-0-12-0-10-12-|-0-0-13-0-12-0-10-12-|-0-0-13-0-12-0-10-12-|
A--0-0-13-0-12-0-10-12-|-0-0-13-0-12-0-10-12-|-0-0-13-0-12-0-10-12-|-0-0-13-0-12-0-10-12-|
D--0-0-13-0-12-0-10-12-|-0-0-13-0-12-0-10-12-|-0-0-13-0-12-0-10-12-|-0-0-13-0-12-0-10-12-|

e-----------------------|
B-----------------------|
G-----------------------|
D-- 0 --> --------------|
A-- 0 --> --------------|
D-- 0 --> --------------|
Tunning: Standard (E A D G B e)
Band: Muse
Song: Stockholm Syndrome
Album: Absolution (2003)
Tuning: Drop D (eBGDAD)

This is my way of playing 'Stockholm Syndrome'. It's my favourite song.

Intro (distortion)

e|--------------------------------------|
B|--------------------------------------|
G|--------------------------------------|
D|--------------------------------------|
A|--------------------------------------|
D|-12-0-13-0-12-0-10-12-0-13-12-0-10-12-|

e|------------------------------------------|
B|------------------------------------------|
G|------------------------------------------|
D|------------------------------------------|
A|------------------------------------------|
D|0-0-12-13-0-12-0-10-12-0-13-12-0-16-17-16-|

e|------------------------------------------------------------------|
B|------------------------------------------------------------------|
G|------------------------------------------------------------------|
D|------------------------------------------------------------------|
A|------------------------------------------------------------------|
D|-12-0-13-0-12-0-10-12-0-13-12-12-0-3*-3*-3*-3*-3*-0-3*-3*-3*-3*-3*|

e|--------------------------------------|
B|--------------------------------------|
G|--------------------------------------|
D|--------------------------------------|
A|--------------------------------------|
D|-12-0-13-0-12-0-10-12-0-13-12-0-10-12-|
x3
e|------------------------------------------|
B|------------------------------------------|
G|------------------------------------------|
D|------------------------------------------|
A|------------------------------------------|
D|0-0-12-13-0-12-0-10-12-0-13-12-0-16-17-16-|

Then, leading into the verse...

e|-------------------------------------------------------------|
B|-------------------------------------------------------------|
G|-------------------------------------------------------------|
D|-------------------------------------------------------------|
A|-------------------------------------------------------------|
D|-12-0-13-0-12-0-10-12-0-13-12-0-10-12-0-13-12-0-10-12-13-12-0|

Verse (mild distortion)

e|--------------------------------|--------------------------------|
B|--------------------------------|--------------------------------|
G|-7-7-7-7-7-7-7-7-7-7-7-7-7-7-7-7|-5-5-5-5-5-5-5-5-5-5-5-5-5-5-5-5|
D|-x-x-x-x-x-x-x-x-x-x-x-x-x-x-x-x|-x-x-x-x-x-x-x-x-x-x-x-x-x-x-x-x|
A|-5-5-5-5-5-5-5-5-5-5-5-5-5-5-5-5|-3-3-3-3-3-3-3-3-3-3-3-3-3-3-3-3|
D|--------------------------------|--------------------------------|

e|--------------------------------|--------------------------------|
B|--------------------------------|--------------------------------|
G|-4-4-4-4-4-4-4-4-4-4-4-4-4-4-4-4|-3-3-3-3-3-3-3-3-3-3-3-3-3-3-3-3|
D|-x-x-x-x-x-x-x-x-x-x-x-x-x-x-x-x|-x-x-x-x-x-x-x-x-x-x-x-x-x-x-x-x|
A|-2-2-2-2-2-2-2-2-2-2-2-2-2-2-2-2|-1-1-1-1-1-1-1-1-1-1-1-1-1-1-1-1|
D|--------------------------------|--------------------------------|

e|--------------------------------|--------------------------------|
B|--------------------------------|--------------------------------|
G|-7-7-7-7-7-7-7-7-7-7-7-7-7-7-7-7|-6-6-6-6-6-6-6-6-6-6-6-6-6-6-6-6|
D|-x-x-x-x-x-x-x-x-x-x-x-x-x-x-x-x|-x-x-x-x-x-x-x-x-x-x-x-x-x-x-x-x|
A|-5-5-5-5-5-5-5-5-5-5-5-5-5-5-5-5|-4-4-4-4-4-4-4-4-4-4-4-4-4-4-4-4|
D|--------------------------------|--------------------------------|

e|--------------------------------|--------------------------------|
B|--------------------------------|--------------------------------|
G|-5-5-5-5-5-5-5-5-5-5-5-5-5-5-5-5|-7-7-7-7-7-7-7-7-7-7-7-7-7-7-7-7|
D|-x-x-x-x-x-x-x-x-x-x-x-x-x-x-x-x|-x-x-x-x-x-x-x-x-x-x-x-x-x-x-x-x|
A|-3-3-3-3-3-3-3-3-3-3-3-3-3-3-3-3|-5-5-5-5-5-5-5-5-5-5-5-5-5-5-5-5|
D|--------------------------------|--------------------------------|

e|------------------------------------------------|---------------------------------|
B|------------------------------------------------|---------------------------------|
G|-7--7--7--7--7--7--7--7--7--7--7--7--7--7--7--7-|-7-7-7-7-7-7-7-7-7-7-7-7-7-7-7-7-|
D|-8--8--8--8--8--8--8--8--8--8--8--8--8--8--8--8-|-7-7-7-7-7-7-7-7-7-7-7-7-7-7-7-7-|
A|-10-10-10-10-10-10-10-10-10-10-10-10-10-10-10-10|-8-8-8-8-8-8-8-8-8-8-8-8-8-8-8-8-|
D|------------------------------------------------|---------------------------------|

e|---------------------------------|---------------------------------|
B|---------------------------------|---------------------------------|
G|-7-7-7-7-7-7-7-7-7-7-7-7-7-7-7-7-|-7-7-7-7-7-7-7-7-7-7-7-7-7-7-7-7-|
D|-5-5-5-5-5-5-5-5-5-5-5-5-5-5-5-5-|-5-5-5-5-5-5-5-5-5-5-5-5-5-5-5-5-|
A|-7-7-7-7-7-7-7-7-7-7-7-7-7-7-7-7-|-6-6-6-6-6-6-6-6-6-6-6-6-6-6-6-6-|
D|---------------------------------|---------------------------------|

e|---------------------------------|---------------------------------|
B|---------------------------------|---------------------------------|
G|-7-7-7-7-7-7-7-7-7-7-7-7-7-7-7-7-|-6-6-6-6-6-6-6-6-6-6-6-6-6-6-6-6-|
D|-5-5-5-5-5-5-5-5-5-5-5-5-5-5-5-5-|-5-5-5-5-5-5-5-5-5-5-5-5-5-5-5-5-|
A|-0-0-0-0-0-0-0-0-0-0-0-0-0-0-0-0-|-0-0-0-0-0-0-0-0-0-0-0-0-0-0-0-0-|
D|---------------------------------|---------------------------------|

e|--------------------------------|
B|--------------------------------|
G|-6-6-6-6-6-6-6-6-6-6-6-6-6-6-6-6|
D|-7-7-7-7-7-7-7-7-7-7-7-7-7-7-7-7|
A|-0-0-0-0-0-0-0-0-0-0-0-0-0-0-0-0|
D|--------------------------------|

Distortion:

e|---------------|
B|---------------|
G|---------------|
D|-x-x-5----4----|
A|-x-x-5----4----|
D|-x-x-5----4----|

e|---------------|
B|---------------|
G|---------------| x4
D|-3-3-3-3-3-3-3-|
A|-3-3-3-3-3-3-3-|
D|-3-3-3-3-3-3-3-|

Chorus

e|-1-1-1-1-1-1-1-1|-1-1-1-1-1-1-1-1|-0-0-0-0-0-0-0-0|-0-0-0-0-0-0-0-0|
B|-1-1-1-1-1-1-1-1|-1-1-1-1-1-1-1-1|-2-2-2-2-2-2-2-2|-2-2-2-2-2-2-2-2|
G|-2-2-2-2-2-2-2-2|-2-2-2-2-2-2-2-2|-2-2-2-2-2-2-2-2|-2-2-2-2-2-2-2-2|
D|-3-3-3-3-3-3-3-3|-3-3-3-3-3-3-3-3|-2-2-2-2-2-2-2-2|-2-2-2-2-2-2-2-2|
A|-3-3-3-3-3-3-3-3|-3-3-3-3-3-3-3-3|-0-0-0-0-0-0-0-0|-0-0-0-0-0-0-0-0|
D|----------------|----------------|----------------|----------------|
x2
e|-1-1-1-1-1-1-1-1|-1-1-1-1-1-1-1-1|-1-1-1-1-1-1-1-1|-1-1-1-1-1-1-1-1|
B|-3-3-3-3-3-3-3-3|-3-3-3-3-3-3-3-3|-3-3-3-3-3-3-3-3|-3-3-3-3-3-3-3-3|
G|-2-2-2-2-2-2-2-2|-2-2-2-2-2-2-2-2|-2-2-2-2-2-2-2-2|-2-2-2-2-2-2-2-2|
D|-0-0-0-0-0-0-0-0|-0-0-0-0-0-0-0-0|-0-0-0-0-0-0-0-0|-0-0-0-0-0-0-0-0|
A|-0-0-0-0-0-0-0-0|-0-0-0-0-0-0-0-0|-0-0-0-0-0-0-0-0|-0-0-0-0-0-0-0-0|
D|-0-0-0-0-0-0-0-0|-0-0-0-0-0-0-0-0|-0-0-0-0-0-0-0-0|-0-0-0-0-0-0-0-0|

"I wish I could"

e|-------------------------|-------------------------|
B|-------------------------|-------------------------|
G|-10-10-10-10-10-10-10-10-|-10-10-10-10-10-10-10-10-|
D|-8--8--8--8--8--8--8--8--|-8--8--8--8--8--8--8--8--|
A|-8--8--8--8--8--8--8--8--|-8--8--8--8--8--8--8--8--|
D|-8--8--8--8--8--8--8--8--|-8--8--8--8--8--8--8--8--|

Then:

e--------------------------------|-----------------------------------------|
B--------------------------------|-----------------------------------------|
G--------------------------------|-----------------------------------------|
D-3-3-3-3-3-3-3-3-6-6-6-6-6-6-6-6|-7-7-7-7-7-7-7-7-10-10-10-10-11-11-11-11-|
A-3-3-3-3-3-3-3-3-6-6-6-6-6-6-6-6|-7-7-7-7-7-7-7-7-10-10-10-10-11-11-11-11-|
D-3-3-3-3-3-3-3-3-6-6-6-6-6-6-6-6|-7-7-7-7-7-7-7-7-10-10-10-10-11-11-11-11-|

(After first chorus)

e|--------------------------------------|-----------------------|
B|--------------------------------------|-----------------------|
G|--------------------------------------|-----------------------|
D|--------------------------------------|-----------------------|
A|--------------------------------------|-----------------------|
D|-12-0-13-0-12-0-10-12-0-13-12-0-10-12-|-3*-0-3*-0-3*-0-3*-0-3*|

(After second chorus)

e|--------------------------------------|-------------------------------------------|
B|--------------------------------------|-------------------------------------------|
G|--------------------------------------|-------------------------------------------|
D|--------------------------------------|-------------------------------------------|
A|--------------------------------------|-------------------------------------------|
D|-12-0-13-0-12-0-10-12-0-13-12-0-10-12-|-0-0-12-13-0-12-0-10-12-0-13-12-0-16-17-16-|

e|------------------------------------------------------------------|
B|------------------------------------------------------------------|
G|------------------------------------------------------------------|
D|------------------------------------------------------------------|
A|------------------------------------------------------------------|
D|-12-0-13-0-12-0-10-12-0-13-12-12-0-3*-3*-3*-3*-3*-0-3*-3*-3*-3*-3*|

e|---------------------------------------------|
B|---------------------------------------------|
G|---------------------------------------------|
D|---------------------------------------------| x4
A|---------------------------------------------|
D|-12-13-12-10-12-13-12-10-12-13-12-10-12-13-12|

Solo:

e|----------------------------------------|----------------------------------------|
B|----------------------------------------|----------------------------------------|
G|----------------------------------------|----------------------------------------|
D|----------------------------------------|----------------------------------------|
A|----------------------------------------|----------------------------------------|
D|-20-20-17-17--20-20-17-17--20-20-17-17--|-19-19-16-16--19-19-16-16--19-19-16-16--|

e|----------------------------------------|---------------------------|
B|----------------------------------------|---------------------------|
G|----------------------------------------|---------------------------|
D|----------------------------------------|---------------------------|
A|----------------------------------------|---------------------------|
D|-17-17-14-14--17-17-14-14--17-17-14-14--|-17-17-13-13--17-17-13-13--|

e|-----------------------------------|
B|-----------------------------------|
G|-----------------------------------|
D|-----------------------------------| x3
A|-12-0-13-0-12-10-12-0-13-12-0-10-12|
D|-----------------------------------|


e|----------------|
B|----------------|
G|----------------|
D|-x-x-x-x--5--4--|
A|-x-x-x-x--5--4--|
D|-x-x-x-x--5--4--|

Back to Chorus

End riff

e|---------------------------|
B|---------------------------|
G|---------------------------|
D|---------------------------| x6
A|---------------------------|
D|-0--0--13--0--12--0--10--12|

e|-----------------|
B|-----------------|
G|-----------------|
D|-----------------|
A|-0--------------x|
D|-0--------------x|
Tunning: Standard (E A D G B e)
Intro
Q=138
D
4/4
Gtr I
|------------------------------------------|
|------------------------------------------|
|------------------------------------------|
|------------------------------------------|
|------------------------------------------|
|-12-0-13-0-12-0-10-12-0-0-13-0-12-0-10-12-|


D
~~
|------------------------------------------|
|------------------------------------------|
|------------------------------------------|
|------------------------------------------|
|------------------------------------------|
|-0-0-13-0-12-0-10-12-0-0-13-0-16h17p16-0--|


D
|------------------------------------------|
|------------------------------------------|
|------------------------------------------|
|------------------------------------------|
|------------------------------------------|
|-12-0-13-0-12-0-10-12-0-0-13-0-12-0-10-12-|


D
|-----------------------------------------------------------------|
|-----------------------------------------------------------------|
|-----------------------------------------------------------------|
|-----------------------------------------------------------------|
|-----------------------------------------------------------------|
|-0-0-[10]-[10]-[10]-[10]-[10]-[10]-[10]-[10]-[10]-[10]-[10]-[10]-|


D
||-------------------------------------------|
||o------------------------------------------|
||-------------------------------------------|
||-------------------------------------------|
||o------------------------------------------|
||--12-0-13-0-12-0-10-12-0-0-13-0-12-0-10-12-|


D
~~
4x
|-------------------------------------------||
|------------------------------------------o||
|-------------------------------------------||
|-------------------------------------------||
|------------------------------------------o||
|-0-0-13-0-12-0-10-12-0-0-13-0-16h17p16-0---||


Verse
$
Dm C
||----------------------------------|----------------------------------|
||o-6-6-6-6-6-6-6-6-6-6-6-6-6-6-6-6-|-5-5-5-5-5-5-5-5-5-5-5-5-5-5-5-5--|
||--7-7-7-7-7-7-7-7-7-7-7-7-7-7-7-7-|-5-5-5-5-5-5-5-5-5-5-5-5-5-5-5-5--|
||--x-x-x-x-x-x-x-x-x-x-x-x-x-x-x-x-|-x-x-x-x-x-x-x-x-x-x-x-x-x-x-x-x--|
||o-5-5-5-5-5-5-5-5-5-5-5-5-5-5-5-5-|-3-3-3-3-3-3-3-3-3-3-3-3-3-3-3-3--|
||----------------------------------|----------------------------------|


Bm Bb
|---------------------------------|---------------------------------|
|-3-3-3-3-3-3-3-3-3-3-3-3-3-3-3-3-|-3-3-3-3-3-3-3-3-3-3-3-3-3-3-3-3-|
|-4-4-4-4-4-4-4-4-4-4-4-4-4-4-4-4-|-3-3-3-3-3-3-3-3-3-3-3-3-3-3-3-3-|
|-x-x-x-x-x-x-x-x-x-x-x-x-x-x-x-x-|-x-x-x-x-x-x-x-x-x-x-x-x-x-x-x-x-|
|-2-2-2-2-2-2-2-2-2-2-2-2-2-2-2-2-|-1-1-1-1-1-1-1-1-1-1-1-1-1-1-1-1-|
|---------------------------------|---------------------------------|


Dm C#m
|---------------------------------|---------------------------------|
|-6-6-6-6-6-6-6-6-6-6-6-6-6-6-6-6-|-5-5-5-5-5-5-5-5-5-5-5-5-5-5-5-5-|
|-7-7-7-7-7-7-7-7-7-7-7-7-7-7-7-7-|-6-6-6-6-6-6-6-6-6-6-6-6-6-6-6-6-|
|-x-x-x-x-x-x-x-x-x-x-x-x-x-x-x-x-|-x-x-x-x-x-x-x-x-x-x-x-x-x-x-x-x-|
|-5-5-5-5-5-5-5-5-5-5-5-5-5-5-5-5-|-4-4-4-4-4-4-4-4-4-4-4-4-4-4-4-4-|
|---------------------------------|---------------------------------|


C Dm
|---------------------------------|---------------------------------|
|-5-5-5-5-5-5-5-5-5-5-5-5-5-5-5-5-|-6-6-6-6-6-6-6-6-6-6-6-6-6-6-6-6-|
|-5-5-5-5-5-5-5-5-5-5-5-5-5-5-5-5-|-7-7-7-7-7-7-7-7-7-7-7-7-7-7-7-7-|
|-x-x-x-x-x-x-x-x-x-x-x-x-x-x-x-x-|-x-x-x-x-x-x-x-x-x-x-x-x-x-x-x-x-|
|-3-3-3-3-3-3-3-3-3-3-3-3-3-3-3-3-|-5-5-5-5-5-5-5-5-5-5-5-5-5-5-5-5-|
|---------------------------------|---------------------------------|


Gm
|-------------------------------------------------|
|-11-11-11-11-11-11-11-11-11-11-11-11-11-11-11-11-|
|-12-12-12-12-12-12-12-12-12-12-12-12-12-12-12-12-|
|--x--x--x--x--x--x--x--x--x--x--x--x--x--x--x--x-|
|-10-10-10-10-10-10-10-10-10-10-10-10-10-10-10-10-|
|-------------------------------------------------|


F
|-------------------------------------------------|
|-10-10-10-10-10-10-10-10-10-10-10-10-10-10-10-10-|
|-10-10-10-10-10-10-10-10-10-10-10-10-10-10-10-10-|
|--x--x--x--x--x--x--x--x--x--x--x--x--x--x--x--x-|
|--8--8--8--8--8--8--8--8--8--8--8--8--8--8--8--8-|
|-------------------------------------------------|


Em Eb
|---------------------------------|---------------------------------|
|-8-8-8-8-8-8-8-8-8-8-8-8-8-8-8-8-|-8-8-8-8-8-8-8-8-8-8-8-8-8-8-8-8-|
|-9-9-9-9-9-9-9-9-9-9-9-9-9-9-9-9-|-8-8-8-8-8-8-8-8-8-8-8-8-8-8-8-8-|
|-x-x-x-x-x-x-x-x-x-x-x-x-x-x-x-x-|-x-x-x-x-x-x-x-x-x-x-x-x-x-x-x-x-|
|-7-7-7-7-7-7-7-7-7-7-7-7-7-7-7-7-|-6-6-6-6-6-6-6-6-6-6-6-6-6-6-6-6-|
|---------------------------------|---------------------------------|


To Coda
Em
|---------------------------------|-----------------------------------|
|-8-8-8-8-8-8-8-8-8-8-8-8-8-8-8-8-|-8-8-8-8-8-8-8-8-8-8-8-8-8-8-8-8---|
|-9-9-9-9-9-9-9-9-9-9-9-9-9-9-9-9-|-9-9-9-9-9-9-9-9-9-9-9-9-9-9-9-9---|
|-x-x-x-x-x-x-x-x-x-x-x-x-x-x-x-x-|-x-x-x-x-x-x-x-x-x-x-x-x-x-x-x-x---|
|-7-7-7-7-7-7-7-7-7-7-7-7-7-7-7-7-|-7-7-7-7-7-7-7-7-7-7-7-7-7-7-7-7---|
|---------------------------------|-----------------------------------|


1.
A5/E
|-------------------------------------------------|
|-10-10-10-10-10-10-10-10-10-10-10-10-10-10-10-10-|
|--9--9--9--9--9--9--9--9--9--9--9--9--9--9--9--9-|
|--x--x--x--x--x--x--x--x--x--x--x--x--x--x--x--x-|
|--7--7--7--7--7--7--7--7--7--7--7--7--7--7--7--7-|
|-------------------------------------------------|


|--------------------------------------------------||
|-10-10-10-10-10-10-10-10-10-10-10-10-10-10-10-10-o||
|--9--9--9--9--9--9--9--9--9--9--9--9--9--9--9--9--||
|--x--x--x--x--x--x--x--x--x--x--x--x--x--x--x--x--||
|--7--7--7--7--7--7--7--7--7--7--7--7--7--7--7--7-o||
|--------------------------------------------------||


2.
A5/E
|-------------------------------------------------|
|-10-10-10-10-10-10-10-10-10-10-10-10-10-10-10-10-|
|--9--9--9--9--9--9--9--9--9--9--9--9--9--9--9--9-|
|--x--x--x--x--x--x--x--x--x--x--x--x--x--x--x--x-|
|--7--7--7--7--7--7--7--7--7--7--7--7--7--7--7--7-|
|-------------------------------------------------|


G5 F#5
|-------------------------------|
|-10-10-10-10-10-10-10-10-------|
|--9--9--9--9--9--9--9--9-------|
|--x--x--x--x--x--x--x--x-5--4--|
|--7--7--7--7--7--7--7--7-5--4--|
|-------------------------5--4--|


Pre-Chorus
$$
F5
|-----------------|-----------------|-----------------|-----------------|
|-----------------|-----------------|-----------------|-----------------|
|-----------------|-----------------|-----------------|-----------------|
|-3-3-3-3-3-3-3-3-|-3-3-3-3-3-3-3-3-|-3-3-3-3-3-3-3-3-|-3-3-3-3-3-3-3-3-|
|-3-3-3-3-3-3-3-3-|-3-3-3-3-3-3-3-3-|-3-3-3-3-3-3-3-3-|-3-3-3-3-3-3-3-3-|
|-3-3-3-3-3-3-3-3-|-3-3-3-3-3-3-3-3-|-3-3-3-3-3-3-3-3-|-3-3-3-3-3-3-3-3-|


Chorus
F5
||------------------|-----------------|
||o-6-6-6-6-6-6-6-6-|-6-6-6-6-6-6-6-6-|
||--5-5-5-5-5-5-5-5-|-5-5-5-5-5-5-5-5-|
||--3-3-3-3-3-3-3-3-|-3-3-3-3-3-3-3-3-|
||o-3-3-3-3-3-3-3-3-|-3-3-3-3-3-3-3-3-|
||--3-3-3-3-3-3-3-3-|-3-3-3-3-3-3-3-3-|


A5
|-------------------------|--------------------------|
|-10-10-10-10-10-10-10-10-|-10-10-10-10-10-10-10-10--|
|--9--9--9--9--9--9--9--9-|--9--9--9--9--9--9--9--9--|
|--7--7--7--7--7--7--7--7-|--7--7--7--7--7--7--7--7--|
|--7--7--7--7--7--7--7--7-|--7--7--7--7--7--7--7--7--|
|--7--7--7--7--7--7--7--7-|--7--7--7--7--7--7--7--7--|


1.
G5
|-----------------|-----------------|-----------------|------------------||
|-8-8-8-8-8-8-8-8-|-8-8-8-8-8-8-8-8-|-8-8-8-8-8-8-8-8-|-8-8-8-8-8-8-8-8-o||
|-7-7-7-7-7-7-7-7-|-7-7-7-7-7-7-7-7-|-7-7-7-7-7-7-7-7-|-7-7-7-7-7-7-7-7--||
|-5-5-5-5-5-5-5-5-|-5-5-5-5-5-5-5-5-|-5-5-5-5-5-5-5-5-|-5-5-5-5-5-5-5-5--||
|-5-5-5-5-5-5-5-5-|-5-5-5-5-5-5-5-5-|-5-5-5-5-5-5-5-5-|-5-5-5-5-5-5-5-5-o||
|-5-5-5-5-5-5-5-5-|-5-5-5-5-5-5-5-5-|-5-5-5-5-5-5-5-5-|-5-5-5-5-5-5-5-5--||


2.
G5
|-----------------|-----------------|
|-8-8-8-8-8-8-8-8-|-8-8-8-8-8-8-8-8-|
|-7-7-7-7-7-7-7-7-|-7-7-7-7-7-7-7-7-|
|-5-5-5-5-5-5-5-5-|-5-5-5-5-5-5-5-5-|
|-5-5-5-5-5-5-5-5-|-5-5-5-5-5-5-5-5-|
|-5-5-5-5-5-5-5-5-|-5-5-5-5-5-5-5-5-|


Bb5
|-------------------------|-------------------------|
|-11-11-11-11-11-11-11-11-|-11-11-11-11-11-11-11-11-|
|-10-10-10-10-10-10-10-10-|-10-10-10-10-10-10-10-10-|
|--8--8--8--8--8--8--8--8-|--8--8--8--8--8--8--8--8-|
|--8--8--8--8--8--8--8--8-|--8--8--8--8--8--8--8--8-|
|--8--8--8--8--8--8--8--8-|--8--8--8--8--8--8--8--8-|


To Dbl. Coda
F5 G#5 A5 C5 C#5
|---------------------------------|-----------------------------------------|
|---------------------------------|-----------------------------------------|
|---------------------------------|-----------------------------------------|
|-3-3-3-3-3-3-3-3-6-6-6-6-6-6-6-6-|-7-7-7-7-7-7-7-7-10-10-10-10-11-11-11-11-|
|-3-3-3-3-3-3-3-3-6-6-6-6-6-6-6-6-|-7-7-7-7-7-7-7-7-10-10-10-10-11-11-11-11-|
|-3-3-3-3-3-3-3-3-6-6-6-6-6-6-6-6-|-7-7-7-7-7-7-7-7-10-10-10-10-11-11-11-11-|


D
|------------------------------------------|
|------------------------------------------|
|------------------------------------------|
|------------------------------------------|
|------------------------------------------|
|-12-0-13-0-12-0-10-12-0-0-13-0-12-0-10-12-|


D.S. al Coda
C
|-----------------------------------------------------------|
|-----------------------------------------------------------|
|-----------------------------------------------------------|
|-----------------------------------------------------------|
|-----------------------------------------------------------|
|-[x]-[10]-[x]-[10]-[x]-[10]-[10]-[10]-[10]-[10]-[10]-[10]--|


Second Verse End
&
A5/E
|-------------------------------------------------|
|-10-10-10-10-10-10-10-10-10-10-10-10-10-10-10-10-|
|--9--9--9--9--9--9--9--9--9--9--9--9--9--9--9--9-|
|--x--x--x--x--x--x--x--x--x--x--x--x--x--x--x--x-|
|--7--7--7--7--7--7--7--7--7--7--7--7--7--7--7--7-|
|-------------------------------------------------|


D.S.S. al Dbl. Coda
G5 F#5
|-------------------------------|
|-10-10-10-10-10-10-10-10-------|
|--9--9--9--9--9--9--9--9-------|
|--x--x--x--x--x--x--x--x-5--4--|
|--7--7--7--7--7--7--7--7-5--4--|
|-------------------------5--4--|


Bridge
&&
D
|------------------------------------------|
|------------------------------------------|
|------------------------------------------|
|------------------------------------------|
|------------------------------------------|
|-12-0-13-0-12-0-10-12-0-0-13-0-12-0-10-12-|


D
~~
|------------------------------------------|
|------------------------------------------|
|------------------------------------------|
|------------------------------------------|
|------------------------------------------|
|-0-0-13-0-12-0-10-12-12-0-13-0-16h17p16-0-|


D
|-------------------------------------------|
|-------------------------------------------|
|-------------------------------------------|
|-------------------------------------------|
|-------------------------------------------|
|-12-0-13-0-12-0-10-12-12-0-13-0-12-0-10-12-|


C
|----------------------------------------------------------|
|----------------------------------------------------------|
|----------------------------------------------------------|
|----------------------------------------------------------|
|----------------------------------------------------------|
|-[x]-[10]-[x]-[10]-[x]-[10]-[10]-[10]-[10]-[10]-[10]-[10]-|


D
||-------------------------------------------|
||o------------------------------------------|
||-------------------------------------------|
||-------------------------------------------|
||o------------------------------------------|
||--12-0-13-0-12-0-10-12-0-0-13-0-12-0-10-12-|


D
4x
|-------------------------------------------||
|------------------------------------------o||
|-------------------------------------------||
|-------------------------------------------||
|------------------------------------------o||
|-0-0-13-0-12-0-10-12-0-0-13-0-12-0-10-12---||


Guitar Solo
Bb A
|---------------------------------|---------------------------------|
|---------------------------------|---------------------------------|
|---------------------------------|---------------------------------|
|-8-8-5-5-0-0-8-8-5-5-0-0-8-8-5-5-|-7-7-3-3-0-0-7-7-3-3-0-0-7-7-3-3-|
|---------------------------------|---------------------------------|
|---------------------------------|---------------------------------|


G G
|---------------------------------|---------------------------------|
|---------------------------------|---------------------------------|
|---------------------------------|---------------------------------|
|-5-5-2-2-0-0-5-5-2-2-0-0-5-5-2-2-|-5-5-1-1-0-0-5-5-1-1-0-0-5-5-1-1-|
|---------------------------------|---------------------------------|
|---------------------------------|---------------------------------|


A A
|---------------------------------|---------------------------------|
|---------------------------------|---------------------------------|
|---------------------------------|---------------------------------|
|-7-0-8-0-7-0-5-7-0-0-8-0-7-0-5-7-|-0-0-8-0-7-0-5-7-0-0-8-0-7-0-5-7-|
|---------------------------------|---------------------------------|
|---------------------------------|---------------------------------|


A G5 F#5
|---------------------------------|-----------------------|
|---------------------------------|-----------------------|
|---------------------------------|-----------------------|
|-0-0-8-0-7-0-5-7-0-0-8-0-7-0-5-7-|-----------------5--4--|
|---------------------------------|-----------------5--4--|
|---------------------------------|--[10]-[10]-[10]-5--4--|


Chorus
F5
||------------------|-----------------|
||o-6-6-6-6-6-6-6-6-|-6-6-6-6-6-6-6-6-|
||--5-5-5-5-5-5-5-5-|-5-5-5-5-5-5-5-5-|
||--3-3-3-3-3-3-3-3-|-3-3-3-3-3-3-3-3-|
||o-3-3-3-3-3-3-3-3-|-3-3-3-3-3-3-3-3-|
||--3-3-3-3-3-3-3-3-|-3-3-3-3-3-3-3-3-|


A5
|-------------------------|--------------------------|
|-10-10-10-10-10-10-10-10-|-10-10-10-10-10-10-10-10--|
|--9--9--9--9--9--9--9--9-|--9--9--9--9--9--9--9--9--|
|--7--7--7--7--7--7--7--7-|--7--7--7--7--7--7--7--7--|
|--7--7--7--7--7--7--7--7-|--7--7--7--7--7--7--7--7--|
|--7--7--7--7--7--7--7--7-|--7--7--7--7--7--7--7--7--|


1.
G5
|-----------------|-----------------|-----------------|------------------||
|-8-8-8-8-8-8-8-8-|-8-8-8-8-8-8-8-8-|-8-8-8-8-8-8-8-8-|-8-8-8-8-8-8-8-8-o||
|-7-7-7-7-7-7-7-7-|-7-7-7-7-7-7-7-7-|-7-7-7-7-7-7-7-7-|-7-7-7-7-7-7-7-7--||
|-5-5-5-5-5-5-5-5-|-5-5-5-5-5-5-5-5-|-5-5-5-5-5-5-5-5-|-5-5-5-5-5-5-5-5--||
|-5-5-5-5-5-5-5-5-|-5-5-5-5-5-5-5-5-|-5-5-5-5-5-5-5-5-|-5-5-5-5-5-5-5-5-o||
|-5-5-5-5-5-5-5-5-|-5-5-5-5-5-5-5-5-|-5-5-5-5-5-5-5-5-|-5-5-5-5-5-5-5-5--||


2.
G5
|-----------------|-----------------|
|-8-8-8-8-8-8-8-8-|-8-8-8-8-8-8-8-8-|
|-7-7-7-7-7-7-7-7-|-7-7-7-7-7-7-7-7-|
|-5-5-5-5-5-5-5-5-|-5-5-5-5-5-5-5-5-|
|-5-5-5-5-5-5-5-5-|-5-5-5-5-5-5-5-5-|
|-5-5-5-5-5-5-5-5-|-5-5-5-5-5-5-5-5-|


Bb5
|-------------------------|-------------------------|
|-11-11-11-11-11-11-11-11-|-11-11-11-11-11-11-11-11-|
|-10-10-10-10-10-10-10-10-|-10-10-10-10-10-10-10-10-|
|--8--8--8--8--8--8--8--8-|--8--8--8--8--8--8--8--8-|
|--8--8--8--8--8--8--8--8-|--8--8--8--8--8--8--8--8-|
|--8--8--8--8--8--8--8--8-|--8--8--8--8--8--8--8--8-|


F5 G#5
||----------------------------------|
||o---------------------------------|
||----------------------------------|
||--3-3-3-3-3-3-3-3-6-6-6-6-6-6-6-6-|
||o-3-3-3-3-3-3-3-3-6-6-6-6-6-6-6-6-|
||--3-3-3-3-3-3-3-3-6-6-6-6-6-6-6-6-|


A5 C5 C#5
|-------------------------------------------||
|------------------------------------------o||
|-------------------------------------------||
|-7-7-7-7-7-7-7-7-10-10-10-10-11-11-11-11---||
|-7-7-7-7-7-7-7-7-10-10-10-10-11-11-11-11--o||
|-7-7-7-7-7-7-7-7-10-10-10-10-11-11-11-11---||


Outro
D5 Eb5D5D5 D5C5 D5 D5 Eb5D5D5 D5C5 D5
|---------------------|---------------------|
|---------------------|---------------------|
|---------------------|---------------------|
|-0-0-13-0-12-0-10-12-|-0-0-13-0-12-0-10-12-|
|-0-0-13-0-12-0-10-12-|-0-0-13-0-12-0-10-12-|
|-0-0-13-0-12-0-10-12-|-0-0-13-0-12-0-10-12-|


D5 Eb5D5D5 D5C5 D5 D5 Eb5D5D5
|---------------------|--------------------|
|---------------------|--------------------|
|---------------------|--------------------|
|-0-0-13-0-12-0-10-12-|-0-0-13-0-12--12--|
|-0-0-13-0-12-0-10-12-|-0-0-13-0-12--12--|
|-0-0-13-0-12-0-10-12-|-0-0-13-0-12--12--|


D5 Eb5D5D5 D5C5 D5 D5 Eb5D5D5 D5C5 D5
|---------------------|---------------------|
|---------------------|---------------------|
|---------------------|---------------------|
|-0-0-13-0-12-0-10-12-|-0-0-13-0-12-0-10-12-|
|-0-0-13-0-12-0-10-12-|-0-0-13-0-12-0-10-12-|
|-0-0-13-0-12-0-10-12-|-0-0-13-0-12-0-10-12-|


D5 Eb5D5D5 D5C5 D5 D5 Eb5D5D5 D5C5 D5
|---------------------|---------------------|
|---------------------|---------------------|
|---------------------|---------------------|
|-0-0-13-0-12-0-10-12-|-0-0-13-0-12-0-10-12-|
|-0-0-13-0-12-0-10-12-|-0-0-13-0-12-0-10-12-|
|-0-0-13-0-12-0-10-12-|-0-0-13-0-12-0-10-12-|


D5
|----------|------------|------------|--------*|
|----------|------------|------------|--------*|
|----------|------------|------------|--------*|
|-0--------|-(0)--------|-(0)--------|-(0)----*|
|-0--------|-(0)--------|-(0)--------|-(0)----*|
|-0--------|-(0)--------|-(0)--------|-(0)----*|

Song info
Stockholm Syndrome
Muse
2001
  • Rock
  • Alternative Rock
Alternative tracks
Similar songs
One More Light - Linkin Park
Begin The Begin - R.E.M.
End - The Cure
Make Yourself - Incubus

Hi! Hope you enjoy backing track experience.
If you want to help us in the development of the project, feel free to donate!