Cowboys From Hell - Pantera
00:00 / 00:00
Tabs and lyrics
Tunning: Standard (E A D G B e)
Cowboys From Hell
Pantera


[Riff A]

w/flanger

e|-----------|---------------------------------|--------------------------------|
B|-----------|---------------------------------|--------------------------------|
G|-----------|---------------------------------|--------------------------------|
D|-----------|---------------------------------|--------------------------------|
A|-----------|---------------------------------|--------------------------------|
E|-0-0-0-0-0-|-0-0-0-0-0-0-0-0-0-0-0-0-0-0-0-0-|-0-0-0-0-0-0-0-0-0-0-0-0-0-0-0-0|

[Riff B]

e|---------------------------------|-------------------------------|------------|
B|---------------------------------|-------------------------------|------------|
G|---------------------------------|-----------------------------7-|------------|
D|---------------------------------|---5---5-7-5-7-5-8-5-7-5-8h9---|------------|
A|---------------------------------|-7---7-------------------------|------------|
E|-0-0-0-0-0-0-0-0-0-0-0-0-0-0-0-0-|-------------------------------|------------|

-----Palm Mute----------------

Repeat Riff B two more times, then on the fourth, play Riff B.2


[Riff B.2]

e|----------------------------------------------------------------------------|
B|----------------------------------------------------------------------------|
G|----------------------------------------------------------------------------|
D|---5---5-7-5-7-5-8-7-5------------------------------------------------------|
A|-7---7-----------------7--(7)\----------------------------------------------|
E|----------------------------------------------------------------------------|

------P.M-------


[Riff C]

e|--------------------------------|
B|--------------------------------|
G|--------------------------------|
D|---------2---2---------------0--|
A|---------0---0---1---0---1h2----|
E|-0-3-0-3---3---3---3---3--------|

|------------P.M--------|

Repeat Riff C two more times, then play Riff C.2 on the fourth time


[Riff C.2]

e|------------------------------------|
B|------------------------------------|
G|------------------------------------|
D|---------2---2----------------------|
A|---------0---0---1-0----------------|
E|-0-3-0-3---3---3-----3-0------------|

|-------P.M-----|


Now play Riff C three more times and finish with Riff C.2 on the fourth time


[Riff D]

e|-----------------------------|
B|-----------------------------|
G|-----------------------------|
D|--------------------------0--|
A|--------------------0h1h2----|
E|-0-0--0--0--0--0--0----------|

|----P.M-----------|

Play Riff D two more times and finish with Riff D.2


[Riff D.2]

e|------------------------------|
B|------------------------------|
G|------------------------------|
D|--------------------0-------0-|
A|--------------0h1h2---0h1h2---|
E|-0-0--0--0--0-----------------|

|-----P.M.---|


[Riff E]


e|----------------------------|------------------------------------------------|
B|----------------------------|------------------------------------------------|
G|----------------------------|------------------------------------------------|
D|--------------------------0-|------------------------------------------------|
A|--------------------0h1h2---|--------------0h1p0-----0h1p0-------------------|
E|-0-0--0--0--0--0--0---------|-0-0--0--0--0-------3-3-------3-1---------------|

|----P.M-----------| |----P.M----|


Now repeat Riff E once more and go into Main Verses


[Main Verses]

(Riff F)

e|--------------------------|---------------------------------------------------|
B|--------------------------|---------------------------------------------------|
G|--------------------------|---------------------------------------------------|
D|--------------------------|--------------------------0------------------------|
A|--------------------------|--------------------0h1h2--------------------------|
E|-0-0--0--0--0--0--0-0-0-0-|-0-0--0--0--0--0--0--------------------------------|

|---------------P.M---------------------------|


e|--------------------------|---------------------------------------------------|
B|--------------------------|---------------------------------------------------|
G|--------------------------|---------------------------------------------------|
D|--------------------------|---------------------------------------------------|
A|--------------------------|--------------0h1p0-----0h1p0----------------------|
E|-0-0--0--0--0--0--0-0-0-0-|-0-0--0--0--0-------3-3-------3-1------------------|

|----------------P.M.-------------------|

Now Repeat Riff F once more and continue into Riff G


[Riff G]

e|-----------------------------|------------------------------------------------|
B|-----------------------------|------------------------------------------------|
G|-----------------------------|------------------------------------------------|
D|-5-5-5-5-5-5-5-5-5-5-5--6--6-|-5-5-5-5-5-5-5-5-5-5-5--8--7--6-----------------|
A|-5-5-5-5-5-5-5-5-5-5-5--6--6-|-5-5-5-5-5-5-5-5-5-5-5--8--7--6-----------------|
E|-3-3-3-3-3-3-3-3-3-5-3--4--4-|-3-3-3-3-3-3-3-3-3-3-3--6--5--4-----------------|

|------P.M.-----------| |------P.M-----------|


e|--------------------------|---------------------------------------------------|
B|--------------------------|---------------------------------------------------|
G|--------------------------|---------------------------------------------------|
D|--------------------------|---------------------------------------------------|
A|--------------------------|---------------------------------------------------|
E|-0-0--0--0--0--0--0-0-0-0-|-0-0--0--0--0-6-5-3-0------------------------------|

|----------------P.M--------------------|




Now for the Chorus (here we come, reach for your gun...), play Riff C three
times and finish with Riff C.2 on the fourth, then finish the process by
doing the same thing again.

When going back to the 2nd verse, play Riff D/Riff D.2 once, then play Riff E
and go back to the verses.

If you are going into the SOLO after the verses at this point instead, then
play Riff H before solo.



[Riff H]

e|--------------------------|
B|--------------------------|
G|--------------------------|
D|---------2---2-----5-4-3--|
A|---------0---0-----5-4-3--|
E|-0-3-0-3---3---3---3-2-1--|

|---P.M---------|


[Solo]

Em C7 C#dim7 D
~~~~~~ ~~~~~~~~~~~~~ ~~~~~~ A.H.~~
e|-------------|-------------------|--------------------|----------------------|
B|-------------|-------------------|--------------------|----------------------|
G|-------------|-------------------|--------------------|-15---15---15----15---|
D|-------------|-8---8---8---------|-(8)\/14------(14)\-|---14---14----14------|
A|-7------(7)\-|---7---7-----------|--------------------|----------------------|
E|-------------|-------------------|--------------------|----------------------|

Em
~~~
e|---------|--------------------------------------------------------------------|
B|---------|--------------------------------------------------------------------|
G|---(15)\-|--------------------------------------------------------------------|
D|---------|-------------------------------------11-12-15-11-12-15--------------|
A|---------|-------------------11-12-15-11-12-15--------------------------------|
E|---------|-11-12-15-11-12-15--------------------------------------------------|

C7

e|-------------------|-------------------11-12-15p12p11-x-11-12-15p12p11-15p12--|
B|-------------------|-11-12-15-11-12-15----------------------------------------|
G|-11-12-15-11-12-15-|----------------------------------------------------------|
D|-------------------|----------------------------------------------------------|
A|-------------------|----------------------------------------------------------|
E|-------------------|----------------------------------------------------------|

C#dim7
----|
e|-15^(1.5)------12-14-17p14p12--12-14-17p14p12--12-14-17p14p12-12-14-17p14p12-|
B|-----------------------------------------------------------------------------|
G|-----------------------------------------------------------------------------|
D|-----------------------------------------------------------------------------|
A|-----------------------------------------------------------------------------|
E|-----------------------------------------------------------------------------|

D
e|-12h15h19p15p12h15-20p15p12h15-----------------------------------------------|
B|-------------------------------20p15p12h15p12--------------------------------|
G|----------------------------------------------20p15p12h15p12-----------------|
D|-------------------------------------------------------------20p15p12h15p12--|
A|-----------------------------------------------------------------------------|
E|-----------------------------------------------------------------------------|

Em C7 C#dim7
~~~~~~ ~~~~~~ --|
e|------------------------|----------------------------|-----------------------|
B|------------------------|----------------------------|-15^(1)--(15)^(1)------|
G|------------------------|--15----15----15------(15)\-|-----------------------|
D|14-(14)-------(14)\5/---|-----14----14---------------|-----------------------|
A|------------------------|----------------------------|-----------------------|
E|------------------------|----------------------------|-----------------------|

D
~~~~~~
e|-15----------------------18----18----18^(1.5)--(18)\--------|----------------|
B|---15^(1)-----(15)\8/-17----17----17------------------------|----------------|
G|-------------------------------------------------------7/14-|----------------|
D|------------------------------------------------------------|----------------|
A|------------------------------------------------------------|----------------|
E|------------------------------------------------------------|----------------|

Em
e|-----------------------------------------------------------------------------|
B|-12---------------12----------------12---------------12----------------------|
G|---15-14-12-14-15----15-14-12-14-15---15-14-12-14-15---15-14-12-14-15--------|
D|-----------------------------------------------------------------------------|
A|-----------------------------------------------------------------------------|
E|-----------------------------------------------------------------------------|

C7 C#dim7
A.H. ~~
e|------------------------------14^(1)--|-12-14-------12-15------12-15----------|
B|-12^(1/4)-12^(1/4)--------------------|-------15^(1)-----15^(1)-----15^(1)----|
G|-12^(1/4)-12^(1/4)--------------------|---------------------------------------|
D|-------------------14-12h14-----------|---------------------------------------|
A|--------------------------------------|---------------------------------------|
E|--------------------------------------|---------------------------------------|

D
-| ~~~~
e|-12-----------------------|--------------15---------19-------20------21-------|
B|---14^(1/2)-(14)p12-------|--------11/12---12-12/15----15/17----17/18--18/19--|
G|-------------------14^(1)-|-(14)\---------------------------------------------|
D|--------------------------|---------------------------------------------------|
A|--------------------------|---------------------------------------------------|
E|--------------------------|---------------------------------------------------|


[Bridge]

A.H. A.H.
e|-----------------------~~~----|----------------------~~~---|-----------------|
B|------------------------------|----------------------------|-----------------|
G|------------------------------|----------------------2-----|-----------------|
D|-2p0-----2p0-----2p0--5-------|-2p0-----2p0-----2p0--------|-----------------|
A|------------------------------|----------------------------|-----------------|
E|-----0-0-----0-0--------0-0---|-----0-0-----0-0--------0-0-|-----------------|

-P.M.- -P.M.- -P.M.- -P.M- -P.M- -P.M.-

A.H.
e|-----------------------~~~-----|---------------------------------------------|
B|-------------------------------|---------------------------------------------|
G|-------------------------------|-14p12---12\11----11\9----9\7---7\6----------|
D|-2p0-----2p0-----2p0--5---12-12|------14-------12------11-----9-----7--------|
A|-------------------------------|---------------------------------------------|
E|-----0-0-----0-0---------------|---------------------------------------------|

-P.M- -P.M-

A.H. A.H.
e|-----------------------~~~----|----------------------~~~---|-----------------|
B|------------------------------|----------------------------|-----------------|
G|------------------------------|----------------------2-----|-----------------|
D|-2p0-----2p0-----2p0--5-------|-2p0-----2p0-----2p0--------|-----------------|
A|------------------------------|----------------------------|-----------------|
E|-----0-0-----0-0--------0-0---|-----0-0-----0-0--------0-0-|-----------------|

-P.M.- -P.M.- -P.M.- -P.M- -P.M- -P.M.-

A.H.
e|----------------------~~~-0-x-|-17p15---15\14----14\12----12\10----10\9------|
B|------------------------------|------17-------15-------14-------12------10---|
G|------------------------------|----------------------------------------------|
D|-2p0-----2p0-----2p0--5-------|----------------------------------------------|
A|------------------------------|----------------------------------------------|
E|-----0-0-----0-0--------------|----------------------------------------------|

-P.M- -P.M-


e|--------------------------|
B|--------------------------|
G|--------------------------|
D|-8-7-5--------------------|
A|--------7-(7)\------------|
E|--------------------------|



Now continue the song by playing Riff C 3 times, then finish with Riff C.2,
then play Riff C 3 more times and finish with Riff C.2
Finally, play Riff C once and Riff C.2 once
At the end of the song...

A.H. A.H.
e|-----------------------~~~----|----------------------~~~---|-----------------|
B|------------------------------|----------------------------|-----------------|
G|------------------------------|----------------------2-----|-----------------|
D|-2p0-----2p0-----2p0--5-------|-2p0-----2p0-----2p0--------|-----------------|
A|------------------------------|----------------------------|-----------------|
E|-----0-0-----0-0--------0-0---|-----0-0-----0-0--------0-0-|-----------------|

-P.M.- -P.M.- -P.M.- -P.M- -P.M- -P.M.-


e|-17p15----15\14----14\12----12\10----10\9------|------------------------------|
B|-------17-------15-------14-------12-------10--|------------------------------|
G|-----------------------------------------------|------------------------------|
D|-----------------------------------------------|--------------------------2---|
A|-----------------------------------------------|---------------0h1p0------2---|
E|-----------------------------------------------|-0-0-0-0--0----------3--3-0---|



**********************************************************************

|h Hammer
|p Pull off
|~ Vibrato
|^ Bend (number in parentheses indicating magnitude of bend)
|A.H. Artificial harmonic
|P.M. Palm mute

*********************************************************************
Tunning: Standard (E A D G B e)
Pantera
Cowboys From Hell

2x
e||--------------------||------------------------------------||
B||--------------------||----------------------------------- ||
G||--------------------||------------------------------------||
D||--x-x-x-------------||------------------------------------||
A||--x-x-x-------------||------------------------------------||
E||--x-x-x-0-0-0-0-0-0-||---0-0-0-0-0-0-0-0-0-0-0-0-0-0-0-0--||

2x
e|-----------------------------------||------------------------------|
B|-----------------------------------||------------------------------|
G|-------------------------------7---||------------------------------|
D|-----5---5-7-5-7-5-8-5-7-5-8h9-----||----5---5-7-5-7-5-8h7-5-------|
A|---7---7---------------------------||--7---7-----------------7/----|
E|-----------------------------------||------------------------------|


e|----------------------------------|---------------------------------|
B|----------------------------------|---------------------------------|
G|----------------------------------|---------------------------------|
D|----------------------------------|---------------------------------|
A|-----------5---5---------------5--|----------5---5---------------5--|
E|---0-3-0-3-5-3-5-3-6-3-5-3-6/7----|--0-3-0-3-5-3-5-3-6-3-5-3-6/7----|


e|---------------------------------|-------------------------------||
B|---------------------------------|-------------------------------||
G|---------------------------------|-------------------------------||
D|---------------------------------|-------------------------------||
A|----------5---5---------------5--|----------5---5----------------||
E|--0-3-0-3-5-3-5-3-6-3-5-3-6/7----|--0-3-0-3-5-3-5-3-6-5-3-0------||

2x
e|--------------------------------||---------------------------------|
B|--------------------------------||---------------------------------|
G|--------------------------------||---------------------------------|
D|----------------------------0---||---------------------0--------0--|
A|----------------------0h1h2-----||---------------0h1h2----0h1h2----|
E|---0-0--0--0--0--0--0-----------||--0-0--0--0--0-------------------|


e|-------------------------------|------------------------------------||
B|-------------------------------|------------------------------------||
G|-------------------------------|------------------------------------||
D|----------------------------0--|------------------------------------||
A|----------------------0h1h2----|---------------0h1h0-----0h1h0------||
E|---0-0--0--0--0--0--0----------|--0-0--0--0--0-------3-3-------3-1--||


e|-----------------------------|------------------------------|
B|-----------------------------|------------------------------|
G|-----------------------------|------------------------------|
D|-----------------------------|---------------------------0--|
A|-----------------------------|---------------------0h1h2----|
E|---0-0--0--0--0--0--0-0-0-0--|--0-0--0--0--0--0--0----------|


e|----------------------------|------------------------------------||
B|----------------------------|------------------------------------||
G|----------------------------|------------------------------------||
D|----------------------------|------------------------------------||
A|----------------------------|---------------0h1h0-----0h1h0------||
E|--0-0--0--0--0--0--0-0-0-0--|--0-0--0--0--0-------3-3-------3-1--||


e|-------------------------------|------------------------------|
B|-------------------------------|------------------------------|
G|-------------------------------|------------------------------|
D|-------------------------------|------------------------------|
A|--5-5-5-5-5-5-5-5-5-5-5-6--6---|--5-5-5-5-5-5-5-5-5-8---7--6--|
E|--3-3-3-3-3-3-3-3-3-3-3-4--4---|--3-3-3-3-3-3-3-3-3-6---5--4--|


e|----------------------------|---------------------------|
B|----------------------------|---------------------------|
G|----------------------------|---------------------------|
D|----------------------------|---------------------------|
A|----------------------------|---------------------------|
E|--0-0--0--0--0--0--0-0-0-0--|--0-0--0--0--0-6-5-3-0-----|


e|---------------------------------|---------------------------------|
B|---------------------------------|---------------------------------|
G|---------------------------------|---------------------------------|
D|---------------------------------|---------------------------------|
A|----------5---5---------------5--|----------5---5---------------5--|
E|--0-3-0-3-5-3-5-3-6-3-5-3-6/7----|--0-3-0-3-5-3-5-3-6-3-5-3-6/7----|


e|---------------------------------|------------------------------|
B|---------------------------------|------------------------------|
G|---------------------------------|------------------------------|
D|---------------------------------|------------------------------|
A|----------5---5---------------5--|----------5---5---------------|
E|--0-3-0-3-5-3-5-3-6-3-5-3-6/7----|--0-3-0-3-5-3-5-3-6-5-3-0-----|


e|---------------------------------|---------------------------------|
B|---------------------------------|---------------------------------|
G|---------------------------------|---------------------------------|
D|---------------------------------|---------------------------------|
A|----------5---5---------------5--|----------5---5---------------5--|
E|--0-3-0-3-5-3-5-3-6-3-5-3-6/7----|--0-3-0-3-5-3-5-3-6-3-5-3-6/7----|


e|---------------------------------|------------------------------|
B|---------------------------------|------------------------------|
G|---------------------------------|------------------------------|
D|---------------------------------|------------------------------|
A|----------5---5---------------5--|----------5---5---------------|
E|--0-3-0-3-5-3-5-3-6-3-5-3-6/7----|--0-3-0-3-5-3-5-3-6-5-3-0-----|


e|------------------------------|---------------------------------|
B|------------------------------|---------------------------------|
G|------------------------------|---------------------------------|
D|---------------------------0--|---------------------0--------0--|
A|---------------------0h1h2----|---------------0h1h2----0h1h2----|
E|--0-0--0--0--0--0--0----------|--0-0--0--0--0-------------------|


e|------------------------------|-----------------------------------|
B|------------------------------|-----------------------------------|
G|------------------------------|-----------------------------------|
D|---------------------------0--|-----------------------------------|
A|---------------------0h1h2----|---------------0h1h0-----0h1h0-----|
E|--0-0--0--0--0--0--0----------|--0-0--0--0--0-------3-3-------3-1-|


e|------------------------------|-----------------------------------|
B|------------------------------|-----------------------------------|
G|------------------------------|-----------------------------------|
D|---------------------------0--|-----------------------------------|
A|---------------------0h1h2----|---------------0h1h0-----0h1h0-----|
E|--0-0--0--0--0--0--0----------|--0-0--0--0--0-------3-3-------3-1-|


e||-----------------------------|------------------------------|
B||-----------------------------|------------------------------|
G||-----------------------------|------------------------------|
D||-----------------------------|---------------------------0--|
A||-----------------------------|---------------------0h1h2----|
E||---0-0--0--0--0--0--0-0-0-0--|--0-0--0--0--0--0--0----------|


e|----------------------------|------------------------------------||
B|----------------------------|------------------------------------||
G|----------------------------|------------------------------------||
D|----------------------------|------------------------------------||
A|----------------------------|---------------0h1h0-----0h1h0------||
E|--0-0--0--0--0--0--0-0-0-0--|--0-0--0--0--0-------3-3-------3-1--||


e|-------------------------------|------------------------------|
B|-------------------------------|------------------------------|
G|-------------------------------|------------------------------|
D|-------------------------------|------------------------------|
A|--5-5-5-5-5-5-5-5-5-5-5-6--6---|--5-5-5-5-5-5-5-5-5-8---7--6--|
E|--3-3-3-3-3-3-3-3-3-3-3-4--4---|--3-3-3-3-3-3-3-3-3-6---5--4--|


e|----------------------------|---------------------------|
B|----------------------------|---------------------------|
G|----------------------------|---------------------------|
D|----------------------------|---------------------------|
A|----------------------------|---------------1h0---------|
E|--0-0--0--0--0--0--0-0-0-0--|--0-0--0--0--0-----3-0-----|


e|---------------------------------|---------------------------------|
B|---------------------------------|---------------------------------|
G|---------------------------------|---------------------------------|
D|---------------------------------|---------------------------------|
A|----------5---5---------------5--|----------5---5---------------5--|
E|--0-3-0-3-5-3-5-3-6-3-5-3-6/7----|--0-3-0-3-5-3-5-3-6-3-5-3-6/7----|


e|---------------------------------|------------------------------|
B|---------------------------------|------------------------------|
G|---------------------------------|------------------------------|
D|---------------------------------|------------------------------|
A|----------5---5---------------5--|----------5---5---------------|
E|--0-3-0-3-5-3-5-3-6-3-5-3-6/7----|--0-3-0-3-5-3-5-3-6-5-3-0-----|


e|---------------------------------|---------------------------------|
B|---------------------------------|---------------------------------|
G|---------------------------------|---------------------------------|
D|---------------------------------|---------------------------------|
A|----------5---5---------------5--|----------5---5---------------5--|
E|--0-3-0-3-5-3-5-3-6-3-5-3-6/7----|--0-3-0-3-5-3-5-3-6-3-5-3-6/7----|


e|---------------------------------|-----------------------------|
B|---------------------------------|-----------------------------|
G|---------------------------------|-----------------------------|
D|---------------------------------|-----------------------------|
A|----------5---5---------------5--|----------5---5----5---4--3--|
E|--0-3-0-3-5-3-5-3-6-3-5-3-6/7----|--0-3-0-3-5-3-5-3--3---2--1--|


e|---------------------|---------------------|---------------------|
B|---------------------|---------------------|---------------------|
G|---------------------|---------------------|--------2------------|
D|---------------------|--------5------------|--------2------------|
A|--------2------------|--3--3--3------------|--4--4--4------------|
E|--0--0--0------------|---------------------|---------------------|


e|------------------------|-------------------|-------------------|
B|--------3---------------|-------------------|-------------------|
G|--------2---------------|-------------------|-------------------|
D|--------4---------------|-------------------|----5--------------|
A|--5--5--5-----8---7--5--|----2--------------|----3--------------|
E|--------------6---5--3--|----0--------------|-------------------|


e|-------------------|----------------------|---------------------|
B|-------------------|----3-----------------|---------------------|
G|----2--------------|----2-----------------|---------------------|
D|----2--------------|----4-----------------|---------------------|
A|----4--------------|----5-------8---7--5--|--------2------------|
E|-------------------|------------6---5--3--|--0--0--0------------|


e|---------------------|---------------------|------------------------|
B|---------------------|---------------------|--------3---------------|
G|---------------------|--------2------------|--------2---------------|
D|--------5------------|--------2------------|--------4---------------|
A|--3--3--3------------|--4--4--4------------|--5--5--5-----8---7--5--|
E|---------------------|---------------------|--------------6---5--3--|


e|-------------------|-------------------|-------------------|
B|-------------------|-------------------|-------------------|
G|-------------------|-------------------|----2--------------|
D|-------------------|----5--------------|----2--------------|
A|----2--------------|----3--------------|----4--------------|
E|----0--------------|-------------------|-------------------|


e|----------------------|-------------------------------|
B|----3-----------------|-------------------------------|
G|----2-----------------|-------------------------------|
D|----4-----------------|----------------------5r-------|
A|----5-------8---7--5--|--7h5-----7h5-----7h5----------|
E|------------6---5--3--|------0-0-----0-0----------0-0-|


e|-------------------------------|-------------------------------|
B|-------------------------------|-------------------------------|
G|-------------------------------|-------------------------------|
D|----------------------7r-------|----------------------5r-------|
A|--7h5-----7h5-----7h5----------|--7h5-----7h5-----7h5----------|
E|------0-0-----0-0----------0-0-|------0-0-----0-0----------0-0-|


e|-----------------------------------------|-------------------------------|
B|-----------------------------------------|-------------------------------|
G|--14h12----12/11----11/9----9/7---7/6----|-------------------------------|
D|--------14-------12------11-----9-----7--|----------------------5r-------|
A|-----------------------------------------|--7h5-----7h5-----7h5----------|
E|-----------------------------------------|------0-0-----0-0----------0-0-|


e|-------------------------------|-------------------------------|
B|-------------------------------|-------------------------------|
G|-------------------------------|-------------------------------|
D|----------------------7r-------|----------------------5r-------|
A|--7h5-----7h5-----7h5----------|--7h5-----7h5-----7h5----------|
E|------0-0-----0-0----------0-0-|------0-0-----0-0----------0-0-|


e|--17h15----15/14----14/12----12/10----10/9-----|-------------------|
B|--------17-------15-------14-------12------10--|-------------------|
G|-----------------------------------------------|-------------------|
D|-----------------------------------------------|----------x--------|
A|-----------------------------------------------|-------------------|
E|-----------------------------------------------|-------------------|


e|------------------|------------------|----------------------|
B|------------------|------------------|----------------------|
G|------------------|------------------|----------------------|
D|------------------|------------------|----------8-7-5-------|
A|------------------|------------------|----------------7/----|
E|------------------|------------------|----------------------|


e||----------------------------------|---------------------------------|
B||----------------------------------|---------------------------------|
G||----------------------------------|---------------------------------|
D||----------------------------------|---------------------------------|
A||-----------5---5---------------5--|----------5---5---------------5--|
E||---0-3-0-3-5-3-5-3-6-3-5-3-6/7----|--0-3-0-3-5-3-5-3-6-3-5-3-6/7----|


e|---------------------------------|-------------------------------||
B|---------------------------------|-------------------------------||
G|---------------------------------|-------------------------------||
D|---------------------------------|-------------------------------||
A|----------5---5---------------5--|----------5---5----------------||
E|--0-3-0-3-5-3-5-3-6-3-5-3-6/7----|--0-3-0-3-5-3-5-3-6-5-3-0------||


e|---------------------------------|------------------------------|
B|---------------------------------|------------------------------|
G|---------------------------------|------------------------------|
D|---------------------------------|------------------------------|
A|----------5---5---------------5--|----------5---5---------------|
E|--0-3-0-3-5-3-5-3-6-3-5-3-6/7----|--0-3-0-3-5-3-5-3-6-5-3-0-----|


e|-------------------------------|-------------------------------|
B|-------------------------------|-------------------------------|
G|-------------------------------|-------------------------------|
D|----------------------5r-------|----------------------7r-------|
A|--7h5-----7h5-----7h5----------|--7h5-----7h5-----7h5----------|
E|------0-0-----0-0----------0-0-|------0-0-----0-0----------0-0-|


e|-------------------------------|-----------------------------------------|
B|-------------------------------|-----------------------------------------|
G|-------------------------------|--14/12----12/11----11/9----9/7---7/6----|
D|----------------------5r-------|--------14-------12------11-----9-----7--|
A|--7h5-----7h5-----7h5----------|-----------------------------------------|
E|------0-0-----0-0----------0-0-|-----------------------------------------|


e|-------------------------------|-------------------------------|
B|-------------------------------|-------------------------------|
G|-------------------------------|-------------------------------|
D|----------------------5r-------|----------------------7r-------|
A|--7h5-----7h5-----7h5----------|--7h5-----7h5-----7h5----------|
E|------0-0-----0-0----------0-0-|------0-0-----0-0----------0-0-|


e|-------------------------------|--17h15----15/14----14/12----12/10----10/9-----|
B|-------------------------------|--------17-------15-------14-------12------10--|
G|-------------------------------|-----------------------------------------------|
D|----------------------5r-------|-----------------------------------------------|
A|--7h5-----7h5-----7h5----------|-----------------------------------------------|
E|------0-0-----0-0----------0-0-|-----------------------------------------------|


e|------------------------------||
B|------------------------------||
G|------------------------------||
D|----------------------------2-||
A|-----------------0h1h0------2-||
E|--0-0-0-0--0-----------3--3-0-||


[Solo]

e|------------------|------------------|------------------|-------------------|
B|------------------|------------------|------------------|-------------------|
G|------------------|------------------|------------------|-------------------|
D|------------------|------------------|------------------|------7~-----------|
A|------------------|------------------|------------------|-------------------|
E|------------------|------------------|------------------|-------------------|


e|-----------------------|--------------------|--------------------------------|
B|-----------------------|--------------------|--------------------------------|
G|-----------------------|--------------------|--15----15----15----15----------|
D|--8---8---8~-----------|------14~-----------|-----14----14----14-------------|
A|----7---7--------------|--------------------|--------------------------------|
E|-----------------------|--------------------|--------------------------------|


e|--------------------------------------------------------------------------|
B|--------------------------------------------------------------------------|
G|--------------------------------------------------------11-12-15-11-12-15-|
D|--------------------------------------11-12-15-11-12-15-------------------|
A|--------------------11-12-15-11-12-15-------------------------------------|
E|--11-12-15-11-12-15-------------------------------------------------------|


e|--------------------11-12-15h12h11-12-11-12-15h12h11-15h12-15r----|
B|--11-12-15-11-12-15-----------------------------------------------|
G|------------------------------------------------------------------|
D|------------------------------------------------------------------|
A|------------------------------------------------------------------|
E|------------------------------------------------------------------|


e|----12--14--17h14h12-14-12-14-17h14h12-14-12-14-17h14h12-14-12-14-17h14h12-x-|
B|-----------------------------------------------------------------------------|
G|-----------------------------------------------------------------------------|
D|-----------------------------------------------------------------------------|
A|-----------------------------------------------------------------------------|
E|-----------------------------------------------------------------------------|


e|--12h15h19h15h12h15-20h-15h12h15h12--------------------------------------|
B|------------------------------------20h-15h12h15h12----------------------|
G|----------------------------------------------------20-20h15h12h15h12----|
D|----------------------------------------------------------------------20h|
A|-------------------------------------------------------------------------|
E|-------------------------------------------------------------------------|


e|-------------------------------|----------------------------|
B|-------------------------------|----------------------------|
G|-------------------------------|--15----15----15~-----------|
D|---15h12h15h12-14~--------5/---|-----14----14---------------|
A|-------------------------------|----------------------------|
E|-------------------------------|----------------------------|


e|------------15-----------|------18----18----18b------------|
B|----15r--------15~----8/-|--17-----17----17----------------|
G|-------------------------|--------------------------7/-14--|
D|-------------------------|---------------------------------|
A|-------------------------|---------------------------------|
E|-------------------------|---------------------------------|


e|--------------------------------------------------------------------------|
B|--12----------------12----------------12----------------12----------------|
G|-----15-14-12-14-15----15-14-12-14-15----15-14-12-14-15----15-14-12-14-15-|
D|--------------------------------------------------------------------------|
A|--------------------------------------------------------------------------|
E|--------------------------------------------------------------------------|


e|------------------------14b---|--12-14-----12-14-----12-14----12--------------|
B|--12b--12b--------------------|--------15b-------15b-------15b---14r14h12-----|
G|--12b--12b--------------------|-------------------------------------------14~-|
D|------------14--12h14~--------|-----------------------------------------------|
A|------------------------------|-----------------------------------------------|
E|------------------------------|-----------------------------------------------|


e|------------15--------19-------20-------21-------|--22b---------------|
B|------11/12----12--15----15/17----17/19----18/19-|--------------------|
G|-------------------------------------------------|--------------------|
D|-------------------------------------------------|--------------------|
A|-------------------------------------------------|--------------------|
E|-------------------------------------------------|--------------------|


************************************

| x Dead note
| h Hammer-on
| r Release
| b Bend
| / Slide up
| ~ Vibrato

************************************
Tunning: Standard (E A D G B e)
Tabs by Caleb any question e-mail me at Radashell@hotmail.com

At 12 seconds

e|----------------------------------- -------------------------------|
B|----------------------------------- Repeat 3x -------------------------------|
G|----------------------------------- -------------------------------|
D|---------------------------------12 -------------------------------|
A|------------12--12--13--12--13h14-- ------------12--12--13-12------|
E|-12-15-12-15--15--15--15--15------- -12-15-12-15--15--15-----15-12-|

At 17 seconds

e|---------------------------------------------------------------------------|
B|---------------------------------------------------------------------------|
G|---------------------------------------------------------------------------|
D|------------2----2----------------0----------------2----2----------------0-|
A|------------0----0----1---0---1H2------------------0----0----1---0---1H2---|
E|-0--3--0--3---3-----3---3---3-----------0--3--0--3---3-----3---3---3-------|

e|--------------------------------------------------------------------|
B|--------------------------------------------------------------------|
G|--------------------------------------------------------------------|
D|------------2----2----------------0---------------2----2------------|
A|------------0----0----1---0---1H2-----------------0----0----1-0-----|
E|-0--3--0--3---3-----3---3---3----------0--3--0--3---3-----3-----3-0-|


Verse Riff at 34 seconds

e|------------------------------------- Repeat 3x -------------------------------------|
B|------------------------------------- -------------------------------------|
G|------------------------------------- -------------------------------------|
D|------------------------------------0 --------------------------0-------0--|
A|------------------------------0-1h2-- --------------------0-1h2---0-1h2----|
E|-0--0----0----0----0----0---0-------- -0--0----0----0---0------------------|

e|---------------------------------------------------------------------------------|
B|---------------------------------------------------------------------------------|
G|---------------------------------------------------------------------------------|
D|------------------------------------0--------------------------------------------|
A|------------------------------0-1h2--------------------------0-1-0-----0-1-0-----|
E|-0--0----0----0----0----0---0------------0--0----0----0----0-------3-3-------3-2-|

Verse at 51 seconds

Under___ lights where we stand nobody touches us at all______

e|------------------------------------------------------------------------|
B|------------------------------------------------------------------------|
G|------------------------------------------------------------------------|
D|----------------------------------------------------------------------0-|
A|----------------------------------------------------------------0-1h2---|
E|-0--0----0----0--0----0--0-0-0-0---0--0----0----0----0----0---0---------|


Show down____ shout out_____ spread fear with in with out we are

e|-----------------------------------------------------------------------------|
B|-----------------------------------------------------------------------------|
G|-----------------------------------------------------------------------------|
D|-----------------------------------------------------------------------------|
A|---------------------------------------------------------0-1-0-----0-1-0-----|
E|--0--0----0----0--0----0--0-0-0-0----0--0----0----0----0-------3-3-------3-2-|


Gonna take whats ours to have Spread word through out the land they say

e|-------------------------------------------------------------------------|
B|-------------------------------------------------------------------------|
G|-------------------------------------------------------------------------|
D|-----------------------------------------------------------------------0-|
A|-----------------------------------------------------------------0-1h2---|
E|-0--0----0----0--0----0--0-0-0-0---0--0----0----0----0----0---0----------|

Bad boys wear black____ We're tagged and can't__ turn back__
e|-----------------------------------------------------------------------------|
B|-----------------------------------------------------------------------------|
G|-----------------------------------------------------------------------------|
D|-----------------------------------------------------------------------------|
A|----------------------------------------------------------0-1-0-----0-1-0----|
E|--0--0----0----0--0----0--0-0-0-0----0--0----0----0----0-------3-3-------3-2-|

Pre Chorus at 1:08

You see us comin' and you all together run for cover

e|------------------------------------------------------------|
B|------------------------------------------------------------|
G|------------------------------------------------------------|
D|--5-5-5-5-5-5-5-5-5-5-5--6---6---5-5-5-5-5-5-5-5-5--8--7--6-|
A|--5-5-5-5-5-5-5-5-5-5-5--6---6---5-5-5-5-5-5-5-5-5--8--7--6-|
E|--3-3-3-3-3-3-3-3-3-3-3--4---4---3-3-3-3-3-3-3-3-3--6--5--4-|

spoken we're takin' over this town____

e|--------------------------------------------------------------|
B|--------------------------------------------------------------|
G|--------------------------------------------------------------|
D|--------------------------------------------------------------|
A|-----------------------------------------------------1-0------|
E|-0--0----0----0--0----0--0-0-0-0---0--0---0----0---0------3-0-|


Chorus 1:16

Here we come reach for your gun and you better listen well my friend you see

e|-----------------------------------------------------------------------------|
B|-----------------------------------------------------------------------------|
G|-----------------------------------------------------------------------------|
D|------------2----2----------------0-----------------2----2----------------0--|
A|------------0----0----1---0---1H2-------------------0----0----1---0---1H2----|
E|-0--3--0--3---3-----3---3---3------------0--3--0--3---3-----3---3---3--------|


It's been slow down be low Aimed at you we're the cowboys from hell

e|--------------------------------------------------------------------|
B|--------------------------------------------------------------------|
G|--------------------------------------------------------------------|
D|------------2----2----------------0---------------2----2------------|
A|------------0----0----1---0---1H2-----------------0----0----1-0-----|
E|-0--3--0--3---3-----3---3---3----------0--3--0--3---3-----3-----3-0-|


Deed is done again we've won ain't talking no tall tails friend 'cause

e|-----------------------------------------------------------------------------|
B|-----------------------------------------------------------------------------|
G|-----------------------------------------------------------------------------|
D|------------2----2----------------0-----------------2----2----------------0--|
A|------------0----0----1---0---1H2-------------------0----0----1---0---1H2----|
E|-0--3--0--3---3-----3---3---3------------0--3--0--3---3-----3---3---3--------|

High noon______ you're doomed Comin' for you we're the cowboys from hell

e|--------------------------------------------------------------------|
B|--------------------------------------------------------------------|
G|--------------------------------------------------------------------|
D|------------2----2----------------0---------------2----2------------|
A|------------0----0----1---0---1H2-----------------0----0----1-0-----|
E|-0--3--0--3---3-----3---3---3----------0--3--0--3---3-----3-----3-0-|


Verse Riff 1:33

e|------------------------------------- Repeat 3x -------------------------------------|
B|------------------------------------- -------------------------------------|
G|------------------------------------- -------------------------------------|
D|------------------------------------0 --------------------------0-------0--|
A|------------------------------0-1h2-- --------------------0-1h2---0-1h2----|
E|-0--0----0----0----0----0---0-------- -0--0----0----0---0------------------|

e|----------------------------------------------------------------------------------|
B|----------------------------------------------------------------------------------|
G|----------------------------------------------------------------------------------|
D|------------------------------------0---------------------------------------------|
A|------------------------------0-1h2--------------------------0-1-0-----0-1-0------|
E|-0--0----0----0----0----0---0-----------0--0----0----0----0--------3-3--------3-2-|

Verse

Pilage the village trash the scene Better not take it out on me 'cause

e|-------------------------------------------------------------------------|
B|-------------------------------------------------------------------------|
G|-------------------------------------------------------------------------|
D|-----------------------------------------------------------------------0-|
A|-----------------------------------------------------------------0-1h2---|
E|-0--0----0----0--0----0--0-0-0-0---0--0----0----0----0----0---0----------|

Ghost town is found Where your city used to be so

e|-----------------------------------------------------------------------------|
B|-----------------------------------------------------------------------------|
G|-----------------------------------------------------------------------------|
D|-----------------------------------------------------------------------------|
A|--------------------------------------------------------0-1-0-----0-1-0------|
E|-0--0----0----0--0----0--0-0-0-0---0--0----0----0----0--------3-3--------3-2-|

Out darkness and into the lights Sparks fly every where in sight from my

e|-------------------------------------------------------------------------|
B|-------------------------------------------------------------------------|
G|-------------------------------------------------------------------------|
D|-----------------------------------------------------------------------0-|
A|-----------------------------------------------------------------0-1h2---|
E|-0--0----0----0--0----0--0-0-0-0---0--0----0----0----0----0---0----------|

double barrel______ 12 gauge Can't lock me in______ your ca_____ge

e|-----------------------------------------------------------------------------|
B|-----------------------------------------------------------------------------|
G|-----------------------------------------------------------------------------|
D|-----------------------------------------------------------------------------|
A|--------------------------------------------------------0-1-0-----0-1-0------|
E|-0--0----0----0--0----0--0-0-0-0---0--0----0----0----0--------3-3--------3-2-|

Pre Chorus 2:03

You see us comin' and you All together run for cover

e|------------------------------------------------------------|
B|------------------------------------------------------------|
G|------------------------------------------------------------|
D|--5-5-5-5-5-5-5-5-5-5-5--6---6---5-5-5-5-5-5-5-5-5--8--7--6-|
A|--5-5-5-5-5-5-5-5-5-5-5--6---6---5-5-5-5-5-5-5-5-5--8--7--6-|
E|--3-3-3-3-3-3-3-3-3-3-3--4---4---3-3-3-3-3-3-3-3-3--6--5--4-|

[spoken] We're takin' over this town

e|--------------------------------------------------------------|
B|--------------------------------------------------------------|
G|--------------------------------------------------------------|
D|--------------------------------------------------------------|
A|-----------------------------------------------------1-0------|
E|-0--0----0----0--0----0--0-0-0-0---0--0---0----0---0------3-0-|


Chorus 2:11

Here we come reach for your gun and you better listen well my friend you see

e|-----------------------------------------------------------------------------|
B|-----------------------------------------------------------------------------|
G|-----------------------------------------------------------------------------|
D|------------2----2----------------0-----------------2----2----------------0--|
A|------------0----0----1---0---1H2-------------------0----0----1---0---1H2----|
E|-0--3--0--3---3-----3---3---3------------0--3--0--3---3-----3---3---3--------|

It's been slow down be low Aimed at you we're the cowboys from hell

e|--------------------------------------------------------------------|
B|--------------------------------------------------------------------|
G|--------------------------------------------------------------------|
D|------------2----2----------------0---------------2----2------------|
A|------------0----0----1---0---1H2-----------------0----0----1-0-----|
E|-0--3--0--3---3-----3---3---3----------0--3--0--3---3-----3-----3-0-|

Deed is done again we've won ain't talking no tall tails friend 'cause

e|-----------------------------------------------------------------------------|
B|-----------------------------------------------------------------------------|
G|-----------------------------------------------------------------------------|
D|------------2----2----------------0-----------------2----2----------------0--|
A|------------0----0----1---0---1H2-------------------0----0----1---0---1H2----|
E|-0--3--0--3---3-----3---3---3------------0--3--0--3---3-----3---3---3--------|


High noon______ you're doomed Comin' for you we're the cowboys from hell

e|-------------------------------------------------------------------------|
B|-------------------------------------------------------------------------|
G|-------------------------------------------------------------------------|
D|-------------2----2----------------0---------------2----2----------------|
A|-------------0----0----1---0---1H2-----------------0----0--------5--4--3-|
E|--0--3--0--3---3-----3---3---3----------0--3--0--3---3-----3--0--3--2--1-|


Solo 2:27

e|-----------------------------------------------------------|
B|-----------------------------------------------------------|
G|-------------------------------------15----15----15----15--|
D|---------8---8---8-----\--/-14----------14----14----14-----|
A|-7---------7---7-------------------------------------------|
E|-----------------------------------------------------------|


e|------------------------------------------------------------------------|
B|------------------------------------------------------------------------|
G|------------------------------------------------------------------------|
D|-------------------------------------------------11--12--15--11--12--15-|
A|-------------------------11--12--15--11--12--15-------------------------|
E|-11--12--15--11--12--15-------------------------------------------------|

e|------------------------------------------------11--12--15--12--10--x--10--12--15--12--10--|
B|------------------------11--12--15--11--12--15---------------------------------------------|
G|-11--12--15--11--12--15--------------------------------------------------------------------|
D|-------------------------------------------------------------------------------------------|
A|-------------------------------------------------------------------------------------------|
E|-------------------------------------------------------------------------------------------|

Bend up p p p p p p
e|-15--12--15--(18)----12--14---17--14--12----12--14---17--14--12----12--14---17--14--12--X--|
B|-------------------------------------------------------------------------------------------|
G|-------------------------------------------------------------------------------------------|
D|-------------------------------------------------------------------------------------------|
A|-------------------------------------------------------------------------------------------|
E|-------------------------------------------------------------------------------------------|

h h p p h p p h p p p h p p h p
e|--12--15--19--15--12--15--20----15--12--15--12------------------------------------------------|
B|------------------------------------------------20---15--12--15--12---------------------------|
G|----------------------------------------------------------------------20--15--12--15--12------|
D|------------------------------------------------------------------------------------------20--|
A|----------------------------------------------------------------------------------------------|
E|----------------------------------------------------------------------------------------------|

bu bd bu bu
e|--------------------------------------------------------------------15------------|
B|-----------------------------------------------------------------------15----(17--|
G|------------------------15----15----15-------15--(17)--(15)--(17)-----------------|
D|-15--12--15--12--14--------14----14-----------------------------------------------|
A|----------------------------------------------------------------------------------|
E|----------------------------------------------------------------------------------|

bu
e|--------18-----18----18--(21)-------------------------------------------------|
B|---17------17-----17---------------------12-----------------12----------------|
G|-------------------------------------14-----15-14-12-14-15-----15-14-12-14-15-|
D|------------------------------------------------------------------------------|
A|------------------------------------------------------------------------------|
E|------------------------------------------------------------------------------|

^ ^ bu
e|----------------------------------------------------------14--(15--|
B|--12----------------12------------------12--12---------------------|
G|-----15-14-12-14-15----15-14-12-14-15---12--12---------------------|
D|--------------------------------------------------12h14------------|
A|-------------------------------------------------------------------|
E|-------------------------------------------------------------------|


e|-12---14---------12---15----------12--14----------12-----------------------------|
B|---------15--(17)--------15--(17)--------15--(17)----12--(14)(12)----------------|
G|-------------------------------------------------------------------14-(16)--(14)-|
D|---------------------------------------------------------------------------------|
A|---------------------------------------------------------------------------------|
E|---------------------------------------------------------------------------------|


e|--------15--------------19------20-------21-------|
B|-11-s-12----12----s-15----15s17----17s18----18s19-|
G|--------------------------------------------------|
D|--------------------------------------------------|
A|--------------------------------------------------|
E|--------------------------------------------------|


End Solo 3:00

e|------------------------------------------------------------------------------------|
B|------------------------------------------------------------------------------------|
G|---------------------------------------------------2>-------------------------------|
D|-2-0-----2-0-----2-0-5>--------2-0-----2-0-----2-0----------2-0-----2-0------2-0-5>-|
A|------------------------------------------------------------------------------------|
E|-----0-0-----0-0-----------0-0-----0-0-----0-0----------0-0-----0-0------0-0--------|


e|--------------------------------------------------------------------------|
B|--------------------------------------------------------------------------|
G|-------14-p12----12-s11----11-s9----9-s7---7-s6---------------------------|
D|-12-12--------14--------12-------11------9------7--2-0-----2-0-----2-0-5>-|
A|--------------------------------------------------------------------------|
E|-------------------------------------------------------0-0-----0-0--------|


e|-----------------------------------------------------------|
B|-----------------------------------------------------------|
G|-------------------------2>--------------------------------|
D|-----2-0-----2-0-----2-0-----------2-0-----2-0-----2-0-5>--|
A|-----------------------------------------------------------|
E|-0-0-----0-0-----0-0-----------0-0-----0-0-----0-0---------|


e|0--X--17-p15-----15-s14----14-s12-----12-s10----10-s9----|
B|--------------17--------15--------14---------12-------10-|
G|---------------------------------------------------------|
D|---------------------------------------------------------|
A|---------------------------------------------------------|
E|---------------------------------------------------------|


Intro Riff at 3:17 w/ spoken vocals

We're takin' over this town

e|----------------------------------- -------------------------------|
B|----------------------------------- Reapeat 3x -------------------------------|
G|----------------------------------- -------------------------------|
D|---------------------------------12 -------------------------------|
A|------------12--12--13--12--13h14-- ------------12--12--13-12------|
E|-12-15-12-15--15--15--15--15------- -12-15-12-15--15--15-----15-12-|


Chorus

Here we come reach for your gun and you better listen well my friend you see

e|-----------------------------------------------------------------------------|
B|-----------------------------------------------------------------------------|
G|-----------------------------------------------------------------------------|
D|------------2----2----------------0-----------------2----2----------------0--|
A|------------0----0----1---0---1H2-------------------0----0----1---0---1H2----|
E|-0--3--0--3---3-----3---3---3------------0--3--0--3---3-----3---3---3--------|

It's been slow down be low Aimed at you we're the cowboys from hell

e|--------------------------------------------------------------------|
B|--------------------------------------------------------------------|
G|--------------------------------------------------------------------|
D|------------2----2----------------0---------------2----2------------|
A|------------0----0----1---0---1H2-----------------0----0----1-0-----|
E|-0--3--0--3---3-----3---3---3----------0--3--0--3---3-----3-----3-0-|

Deed is done again we've won ain't talking no tall tails friend 'cause

e|-----------------------------------------------------------------------------|
B|-----------------------------------------------------------------------------|
G|-----------------------------------------------------------------------------|
D|------------2----2----------------0-----------------2----2----------------0--|
A|------------0----0----1---0---1H2-------------------0----0----1---0---1H2----|
E|-0--3--0--3---3-----3---3---3------------0--3--0--3---3-----3---3---3--------|


High noon______ you're doomed Comin' for you we're the cowboys from hell

e|--------------------------------------------------------------------|
B|--------------------------------------------------------------------|
G|--------------------------------------------------------------------|
D|------------2----2----------------0---------------2----2------------|
A|------------0----0----1---0---1H2-----------------0----0----1-0-----|
E|-0--3--0--3---3-----3---3---3----------0--3--0--3---3-----3-----3-0-|

All___________________________ Step aside we're the cowboys from hell

e|--------------------------------------------------------------------|
B|--------------------------------------------------------------------|
G|--------------------------------------------------------------------|
D|------------2----2----------------0---------------2----2------------|
A|------------0----0----1---0---1H2-----------------0----0----1-0-----|
E|-0--3--0--3---3-----3---3---3----------0--3--0--3---3-----3-----3-0-|


Outro at 3:46

e|------------------------------------------------------------------------------------|
B|------------------------------------------------------------------------------------|
G|---------------------------------------------------2>-------------------------------|
D|-2-0-----2-0-----2-0-5>--------2-0-----2-0-----2-0----------2-0-----2-0------2-0-5>-|
A|------------------------------------------------------------------------------------|
E|-----0-0-----0-0-----------0-0-----0-0-----0-0----------0-0-----0-0------0-0--------|


e|--------------------------------------------------------------------------|
B|--------------------------------------------------------------------------|
G|-------14-p12----12-s11----11-s9----9-s7---7-s6---------------------------|
D|-12-12--------14--------12-------11------9------7--2-0-----2-0-----2-0-5>-|
A|--------------------------------------------------------------------------|
E|-------------------------------------------------------0-0-----0-0--------|


e|-----------------------------------------------------------0--X--17-p15-----15-s14----14-s12-----|
B|-------------------------------------------------------------------------17--------15--------14--|
G|-------------------------2>----------------------------------------------------------------------|
D|-----2-0-----2-0-----2-0-----------2-0-----2-0-----2-0-5>----------------------------------------|
A|-------------------------------------------------------------------------------------------------|
E|-0-0-----0-0-----0-0-----------0-0-----0-0-----0-0-----------------------------------------------|


> = Pinch harmonics.
s = slide.
h = hammer on.
Tunning: Standard (E A D G B e)
Band- Pantera
Song- Cowboys From Hell

Gtr I (E A D G B E) - 'Dimebag'
Gtr II (E A D G B E) - 'Dimebag2'
Gtr III (E A D G B E) - 'Dimebag3'
Gtr IV (E A D G B E) - 'Dimebag4'

[Intro]
Moderate Rock Q=118
(E)
4/4
Gtr I
H E. S S S S S S S S S S S S S S S S S S S S S
e|-------------------|---------------------------------|
B|-------------------|---------------------------------|
G|-------------------|---------------------------------|
D|-------------------|---------------------------------|
A|-------------------|---------------------------------|
E|---------0-0-0-0-0-|-0-0-0-0-0-0-0-0-0-0-0-0-0-0-0-0-|

S S S S S S S S S S S S S S S S
e|----------------------------------|
B|----------------------------------|
G|----------------------------------|
D|----------------------------------|
A|----------------------------------|
E|-0-0-0-0-0-0-0-0-0-0-0-0-0-0-0-0--|

S S S S S S S S S S S S S S S S
e|---------------------------------|
B|---------------------------------|
G|---------------------------------|
D|---------------------------------|
A|---------------------------------|
E|-0-0-0-0-0-0-0-0-0-0-0-0-0-0-0-0-|

[Gtr. 2]
PM------------------------------|
S S S S S S S S S S S S S S E
e|------------------------------------------------|
B|------------------------------------------------|
G|------------------------------------------------|
D|-------------------------------------------12---|
A|-------------12----12----13----12----13h14------|
E|-12-15-12-15----15----15----15----15------------|

S S S S S S S S S S S S S S S S
e|------------------------------------------------|
B|------------------------------------------------|
G|------------------------------------------------|
D|------------------------------------------------|
A|------------------------------------------------|
E|--0--0--0--0--0--0--0--0--0--0--0--0--0--0--0-0-|

PM------------------------------|
S S S S S S S S S S S S S S E
e|------------------------------------------------|
B|------------------------------------------------|
G|------------------------------------------------|
D|-------------------------------------------12---|
A|-------------12----12----13----12----13h14------|
E|-12-15-12-15----15----15----15----15------------|

S S S S S S S S S S S S S S S S
e|------------------------------------------------|
B|------------------------------------------------|
G|------------------------------------------------|
D|------------------------------------------------|
A|------------------------------------------------|
E|--0--0--0--0--0--0--0--0--0--0--0--0--0--0--0-0-|

PM------------------------------|
S S S S S S S S S S S S S S E
e|------------------------------------------------|
B|------------------------------------------------|
G|------------------------------------------------|
D|-------------------------------------------12---|
A|-------------12----12----13----12----13h14------|
E|-12-15-12-15----15----15----15----15------------|

S S S S S S S S S S S S S S S S
e|------------------------------------------------|
B|------------------------------------------------|
G|------------------------------------------------|
D|------------------------------------------------|
A|------------------------------------------------|
E|--0--0--0--0--0--0--0--0--0--0--0--0--0--0--0-0-|

E5 A5
PM------------------| PM--------------------|
S S S S S S S S S S S S +Q S S S S S S S S S S S S S S E
e|--------------------------------------------|-------------------------------|
B|--------------------------------------------|-------------------------------|
G|--------------------------------------------|-------------------------------|
D|--------------------------------------------|---------2---2---------------0-|
A|-------------12----12----13-12-10-----------|-2---2---0---0---1---0---1h2---|
E|-12-15-12-15----15----15----------12-(12)\--|-0-3-0-3---3---3---3---3-------|

PM--------------------|
S S S S S S S S S S S S +Q S S S S S S S S S S S S S S E
e|--------------------------------------------|-------------------------------|
B|--------------------------------------------|-------------------------------|
G|--------------------------------------------|-------------------------------|
D|--------------------------------------------|---------2---2---------------0-|
A|-------------------------13-12-10-----------|-2---2---0---0---1---0---1h2---|
E|--0--0--0--0--0--0--0--0----------12-(12)\--|-0-3-0-3---3---3---3---3-------|

[Gtr III]
H S S S S +Q W
e|--------------------------------------------|-------------------------------|
B|--------------------------------------------|-------------------------------|
G|--------------------------------------------|-------------------------------|
D|--------------------------------------------|-------------------------------|
A|-------------------------13-12-10-----------|-------------------------------|
E|----------------------------------12-(12)\--|-------------------------------|

E5 A5
Gtrs I, II
PM--------------------|
S S S S S S S S S S S S S S E
e|-------------------------------|
B|-------------------------------|
G|-------------------------------|
D|---------2---2---------------0-|
A|-2---2---0---0---1---0---1h2---|
E|-0-3-0-3---3---3---3---3-------|

E5 A5 E5 A5 E5
PM--------------------| PM------------|
S S S S S S S S S S S S S S E S S S S S S S S S S S S Q
e|-------------------------------|-----------------------------|
B|-------------------------------|-----------------------------|
G|-------------------------------|-----------------------------|
D|---------2---2---------------0-|---------2---2---------------|
A|-2---2---0---0---1---0---1h2---|-2---2---0---0---1-0---2-----|
E|-0-3-0-3---3---3---3---3-------|-0-3-0-3---3---3-----3-0-----|

E5 A5
PM--------------------|
S S S S S S S S S S S S S S E
e|-------------------------------|
B|-------------------------------|
G|-------------------------------|
D|---------2---2---------------0-|
A|-2---2---0---0---1---0---1h2---|
E|-0-3-0-3---3---3---3---3-------|

E5 A5 E5 A5
PM--------------------| PM--------------------|
S S S S S S S S S S S S S S E S S S S S S S S S S S S S S E
e|-------------------------------|-------------------------------|
B|-------------------------------|-------------------------------|
G|-------------------------------|-------------------------------|
D|---------2---2---------------0-|---------2---2---------------0-|
A|-2---2---0---0---1---0---1h2---|-2---2---0---0---1---0---1h2---|
E|-0-3-0-3---3---3---3---3-------|-0-3-0-3---3---3---3---3-------|

E5 A5 E5 N.C.(E)
Gtr I
PM------------| PM--------------------|
|-3-|
S S S S S S S S S S S S Q S S S S S S S S S S S S S S S E
e|----------------------------|---------------------------------|
B|----------------------------|---------------------------------|
G|----------------------------|---------------------------------|
D|---------2---2--------------|-------------------------------0-|
A|-2---2---0---0---1-0---2----|-------------------------0h1h2---|
E|-0-3-0-3---3---3-----3-0----|-0-0---0---0---0---0---0---------|

[Gtrs I, II]
PM--------------------|
|-3-|
S S S S S S S S S S S S S S S E
e|-----------------------------------|
B|-----------------------------------|
G|-----------------------------------|
D|-------------------------------0---|
A|-------------------------0h1h2-----|
E|-0-0---0---0---0---0---0-----------|

PM--------------------|
|-3-|
S S S S S S S S S S S S S S S E
e|---------------------------------|
B|---------------------------------|
G|---------------------------------|
D|-------------------------------0-|
A|-------------------------0h1h2---|
E|-0-0---0---0---0---0---0---------|

PM------------| PM--------------------|
|-3-| |-3-| |-3-|
S S S S S S S S S S S E S S S E S S S S S S S S S S S S S S S E
e|---------------------------------|---------------------------------|
B|---------------------------------|---------------------------------|
G|---------------------------------|---------------------------------|
D|-----------------------0-------0-|-------------------------------0-|
A|-----------------0h1h2---0h1h2---|-------------------------0h1h2---|
E|-0-0---0---0---0-----------------|-0-0---0---0---0---0---0---------|

PM------------| PM--------------------|
|-3-| |-3-| |-3-|
S S S S S S S S S S S S S S S S S S S S S S S S S S S S S S S S S E
e|-------------------------------------|---------------------------------|
B|-------------------------------------|---------------------------------|
G|-------------------------------------|---------------------------------|
D|-------------------------------------|-------------------------------0-|
A|-----------------0h1p0-----0h1p0-----|-------------------------0h1h2---|
E|-0-0---0---0---0-------3-3-------3-1-|-0-0---0---0---0---0---0---------|

PM------------|
|-3-| |-3-|
S S S S S S S S S S S S S S S S S S
e|-------------------------------------|
B|-------------------------------------|
G|-------------------------------------|
D|-------------------------------------|
A|-----------------0h1p0-----0h1p0-----|
E|-0-0---0---0---0-------3-3-------3-1-|

[Verse 1 and 2]
PM------------------------------------------------------|
|-3-|
S S S S S S S S S S S S S S S S S S S S S S S S S S S S S S S E
e|----------------------------------|---------------------------------|
B|o---------------------------------|---------------------------------|
G|----------------------------------|---------------------------------|
D|----------------------------------|-------------------------------0-|
A|o---------------------------------|-------------------------0h1h2---|
E|--0-0---0---0---0---0---0-0-0-0---|-0-0---0---0---0---0---0---------|

PM----------------------------|
S S S S S S S S S S S S S S S S
e|------------------------------------|
B|------------------------------------|
G|------------------------------------|
D|------------------------------------|
A|------------------------------------|
E|-0-0---0---0---0---0---0-0-0-0------|

PM------------|
|-3-| |-3-|
S S S S S S S S S S S S S S S S S S
e|-------------------------------------|
B|-------------------------------------|
G|-------------------------------------|
D|-------------------------------------|
A|-----------------0h1p0-----0h1p0-----|
E|-0-0---0---0---0-------3-3-------3-1-|

PM------------------------------------------------------|
|-3-|
S S S S S S S S S S S S S S S S S S S S S S S S S S S S S S S E
e|---------------------------------|-----------------------------------|
B|---------------------------------|-----------------------------------|
G|---------------------------------|-----------------------------------|
D|---------------------------------|-------------------------------0---|
A|---------------------------------|-------------------------0h1h2-----|
E|-0-0---0---0---0---0---0-0-0-0---|-0-0---0---0---0---0---0-----------|

N.C.(E)
PM----------------------------|
S S S S S S S S S S S S S S S S
e|---------------------------------|
B|---------------------------------|
G|---------------------------------|
D|---------------------------------|
A|---------------------------------|
E|-0-0---0---0---0---0---0-0-0-0-0-|

G5 G#5
PM----------| PM------------------|
|-3-| |-3-|
S S S S S S S S S S S S S S S S S S S S S S S S S S S S S S S E.
e|-------------------------------------|------------------------------|
B|-------------------------------------|------------------------------|
G|-------------------------------------|------------------------------|
D|-------------------------------------|------------------------------|
A|-----------------0h1p0-----0h1p0-----|-5-5-5-5-5-5-5-5-5-5-5-6---6--|
E|-0-0---0---0---0-------3-3-------3-1-|-3-3-3-3-3-3-3-3-3-3-3-4---4--|

G5 A#5A5G#5 N.C.(E)
PM--------------| PM-------------------------------
S S S S S S S S S E. E E S S S S S S S S S S S S S S S S
e|--------------------------|---------------------------------|
B|--------------------------|---------------------------------|
G|--------------------------|---------------------------------|
D|--------------------------|---------------------------------|
A|-5-5-5-5-5-5-5-5-5-8--7-6-|---------------------------------|
E|-3-3-3-3-3-3-3-3-3-6--5-4-|-0-0---0---0---0---0---0-0-0-0---|

E5
---------------|
S S S S S S S S S S S S Q
e|----------------------------|
B|----------------------------|
G|----------------------------|
D|----------------------------|
A|-----------------1-0---2----|
E|-0-0---0---0---0-----3-0----|

[Chorus 1 and 2]
E5 A5
PM--------------------|
S S S S S S S S S S S S S S E
e|-------------------------------|
B|-------------------------------|
G|-------------------------------|
D|---------2---2---------------0-|
A|-2---2---0---0---1---0---1h2---|
E|-0-3-0-3---3---3---3---3-------|

E5 A5 E5 A5
PM--------------------| PM--------------------|
S S S S S S S S S S S S S S E S S S S S S S S S S S S S S E
e|-------------------------------|-------------------------------|
B|-------------------------------|-------------------------------|
G|-------------------------------|-------------------------------|
D|---------2---2---------------0-|---------2---2---------------0-|
A|-2---2---0---0---1---0---1h2---|-2---2---0---0---1---0---1h2---|
E|-0-3-0-3---3---3---3---3-------|-0-3-0-3---3---3---3---3-------|

E5 A5 E5 A5
PM------------| PM--------------------|
S S S S S S S S S S S S Q S S S S S S S S S S S S S S E
e|----------------------------|-------------------------------|
B|----------------------------|-------------------------------|
G|----------------------------|-------------------------------|
D|---------2---2--------------|---------2---2---------------0-|
A|-2---2---0---0---1-0---2----|-2---2---0---0---1---0---1h2---|
E|-0-3-0-3---3---3-----3-0----|-0-3-0-3---3---3---3---3-------|

E5 A5
PM--------------------|
S S S S S S S S S S S S S S E
e|--------------------------------|
B|--------------------------------|
G|--------------------------------|
D|---------2---2---------------0--|
A|-2---2---0---0---1---0---1h2----|
E|-0-3-0-3---3---3---3---3--------|

1.
E5 A5 E5 A5 E5
PM--------------------| PM------------|
S S S S S S S S S S S S S S E S S S S S S S S S S S S Q
e|-------------------------------|----------------------------|
B|-------------------------------|----------------------------|
G|-------------------------------|----------------------------|
D|---------2---2---------------0-|---------2---2--------------|
A|-2---2---0---0---1---0---1h2---|-2---2---0---0---1-0---2----|
E|-0-3-0-3---3---3---3---3-------|-0-3-0-3---3---3-----3-0----|

N.C.(E)
Gtr I
PM--------------------|
|-3-|
S S S S S S S S S S S S S S S E
e|---------------------------------|
B|---------------------------------|
G|---------------------------------|
D|-------------------------------0-|
A|-------------------------0h1h2---|
E|-0-0---0---0---0---0---0---------|

Gtrs I, II
PM------------| PM--------------------|
|-3-| |-3-| |-3-|
S S S S S S S S S S S E S S S E S S S S S S S S S S S S S S S E
e|---------------------------------|---------------------------------|
B|---------------------------------|---------------------------------|
G|---------------------------------|---------------------------------|
D|-----------------------0-------0-|-------------------------------0-|
A|-----------------0h1h2---0h1h2---|-------------------------0h1h2---|
E|-0-0---0---0---0-----------------|-0-0---0---0---0---0---0---------|

PM------------|
|-3-| |-3-|
S S S S S S S S S S S S S S S S S S
e|---------------------------------------|
B|---------------------------------------|
G|---------------------------------------|
D|---------------------------------------|
A|-----------------0h1p0-----0h1p0-------|
E|-0-0---0---0---0-------3-3-------3-1---|

PM--------------------|
|-3-|
S S S S S S S S S S S S S S S E
e|---------------------------------|
B|---------------------------------|
G|---------------------------------|
D|-------------------------------0-|
A|-------------------------0h1h2---|
E|-0-0---0---0---0---0---0---------|

2.
E5 A5 G5 F#F5
PM------------| PM------------|
|-3-| |-3-|
S S S S S S S S S S S S S S S S S S S S S S S S S S S E. E E
e|--------------------------------------|----------------------------|
B|-------------------------------------o|----------------------------|
G|--------------------------------------|----------------------------|
D|--------------------------------------|---------2---2--------------|
A|-----------------0h1p0-----0h1p0-----o|-2---2---0---0-----5--4-3---|
E|-0-0---0---0---0-------3-3-------3-1--|-0-3-0-3---3---3---3--2-1---|

[Guitar solo]
E5/B C A/C#
Gtr III
~~ ~~ ~~~~
Q H +Q S S S S H. +Q H +Q
e|-----------------------|-----------------------|-----------------------------|
B|-----------------------|-----------------------|-----------------------------|
G|-----------------------|-----------------------|-----------------------------|
D|-----------------------|-8---8---8-------------|-(8)\---/14-----------(14)\--|
A|-----7-----------(7)\--|---7---7---------------|-----------------------------|
E|-----------------------|-----------------------|-----------------------------|

[Gtrs I, II]
PM| PM--| PM--|
E E E. +S +H E E E. +S +H E E E. +S +H
e|-----------------------|-----------------------|-----------------------------|
B|-----------------------|-----------------------|-----------------------------|
G|-----------------------|---------0--(0)-(0)----|----------2--(2)-(2)---------|
D|-----2--(2)-(2)--------|---------2--(2)-(2)----|----------2--(2)-(2)---------|
A|-----2--(2)-(2)--------|-3---3---3--(3)-(3)----|--4---4---4--(4)-(4)---------|
E|-0-0-------------------|-----------------------|-----------------------------|

D5 A#5A5
~~~~~~~
S S S S S S E +Q +Q
e|------------------------------------------------|
B|------------------------------------------------|
G|-15----15----15----15-(15)----(15)\-------------|
D|----14----14----14------------------------------|
A|------------------------------------------------|
E|------------------------------------------------|

PM---|
E E S S E S E. E S +S
e|------------------------------------------------|
B|------------------------------------------------|
G|------------------------------------------------|
D|--------------7--7--7---------------------------|
A|--5-----5-----5--5--5------8----7---------------|
E|---------------------------6----5---3b3.5==(3)r-|

E5/B
PM---| PM---| PM---| PM---|
|--3--| |--3---| |--3--| |--3--| |--3--| |--3--| |--3--| |--3--|
S S S S S S S S S S S S S S S S S S S S S S S S
e|--------------------------------------------------------------------------|
B|--------------------------------------------------------------------------|
G|--------------------------------------------------------11-12-15-11h12h15-|
D|--------------------------------------11-12-15-11h12h15-------------------|
A|--------------------11-12-15-11h12h15-------------------------------------|
E|-11-12-15-11h=12h15-------------------------------------------------------|

E H..
e|--------------------------------------------------------------------------|
B|--------------------------------------------------------------------------|
G|--------------------------------------------------------------------------|
D|-----------2--------------------------------------------------------------|
A|-----------2--------------------------------------------------------------|
E|--------------------------------------------------------------------------|

C
~~~~~~~~~~~~
|--3--| |--3---| |--3--| |--3--| |--3--|
S S S S S S S S S T T T T S S S S S S +Q
e|--------------------11-12-15-12h15p12p11-15p12p11-15p12-15b18==(15)r---|
B|-11-12-15-11h=12h15----------------------------------------------------|
G|-----------------------------------------------------------------------|
D|-----------------------------------------------------------------------|
A|-----------------------------------------------------------------------|
E|-----------------------------------------------------------------------|

E H..
e|-----------------------------------------------------------------------|
B|-----------------------------------------------------------------------|
G|-----------0-----------------------------------------------------------|
D|-----------2-----------------------------------------------------------|
A|-----------3-----------------------------------------------------------|
E|-----------------------------------------------------------------------|

A/C#
|----3----| |--3--| |--3--|
E E E S S S S S S T T T T T T T T T T T T T T T T
e|---12-----14-17p14p12---12-14-17p14p12---12-14-17p14p12---12-14-17p14p12-12-|
B|----------------------------------------------------------------------------|
G|----------------------------------------------------------------------------|
D|----------------------------------------------------------------------------|
A|----------------------------------------------------------------------------|
E|----------------------------------------------------------------------------|

E H..
e|----------------------------------------------------------------------------|
B|----------------------------------------------------------------------------|
G|------2---------------------------------------------------------------------|
D|------2---------------------------------------------------------------------|
A|------4---------------------------------------------------------------------|
E|----------------------------------------------------------------------------|

D5 A#5 A5
|---------7---------| |-----6------| |--------7--------| |--------7--------|
S S S S S S S E S S S S E S S S S S +E S S S S S
e|---12h15h19p==15p12h15-20p=15p12h15p12--------------------------------------------|
B|---------------------------------------20p===15p12h15p12--------------------------|
G|---------------------------------------------------------20-(20)p15p12h==15p12----|
D|-------------------------------------------------------------------------------20-|
A|----------------------------------------------------------------------------------|
E|----------------------------------------------------------------------------------|

E E +Q S E. E E
e|----------------------------------------------------------------------------------|
B|----------------------------------------------------------------------------------|
G|----------------------------------------------------------------------------------|
D|------------7----------(7)--------------------------------------------------------|
A|------------5----------(5)----------------8-------------------7-------------------|
E|------------------------------------------6-------------------5--------3----------|

E5/B C
~~~~ ~~~
S S S S S S +Q E Q S S S S H +Q
e|----------------------------------------|---------------------------------|
B|----------------------------------------|---------------------------------|
G|----------------------------------------|-15----15----15-----------(15)\--|
D|-20p15p12h15p12--14-(14)---------14s5/--|----14----14---------------------|
A|----------------------------------------|---------------------------------|
E|----------------------------------------|---------------------------------|

PM---| PM---|
E E E. +S +H E E E. +S +H
e|----------------------------------------|---------------------------------|
B|----------------------------------------|---------------------------------|
G|----------------------------------------|--------------0--(0)-(0)---------|
D|--------------2----------(2)-(2)--------|--------------2--(2)-(2)---------|
A|--------------2----------(2)-(2)--------|--3-----3-----3--(3)-(3)---------|
E|--0-----0-------------------------------|---------------------------------|

A/C#
~~~~
E a S +S +Q S a +E. +E E
e|--------------------------------15-----------------------|
B|---15b17==15r(15)b17==(15)r---------15b17==(15)-(15)rS8/-|
G|---------------------------------------------------------|
D|---------------------------------------------------------|
A|---------------------------------------------------------|
E|---------------------------------------------------------|

PM-------|
E E E. +S +H
e|---------------------------------------------------------|
B|---------------------------------------------------------|
G|------------------------2---(2)-(2)----------------------|
D|------------------------2---(2)-(2)----------------------|
A|-4---------4------------4---(4)-(4)----------------------|
E|---------------------------------------------------------|

D5 A#5 A5
E S S S S E +E +E E E
e|-----18----18----18b21==(18)----(18)r\----------------|
B|-/17----17----17--------------------------------------|
G|---------------------------------------7s14-----------|
D|------------------------------------------------------|
A|------------------------------------------------------|
E|------------------------------------------------------|

PM|
E E S S E S E. E S +S
e|------------------------------------------------------|
B|------------------------------------------------------|
G|------------------------------------------------------|
D|------------7--7--7-----------------------------------|
A|---5--5-----5--5--5----------8---------7--------------|
E|-----------------------------6---------5--3b3.5==(3)r-|

E5/B
|--3--| |---3---| |--3--| |--3--| |--3--| |--3--| |--3--| |--3--|
S S S S S S S S S S S S S S S S S S S S S S S S
e|-----------------------------------------------------------------------------|
B|-12------------------12----------------12----------------12------------------|
G|----15-14-12---14-15----15-14-12-14-15----15-14-12-14-15----15-14-12-14-15---|
D|-----------------------------------------------------------------------------|
A|-----------------------------------------------------------------------------|
E|-----------------------------------------------------------------------------|

E H..
e|-----------------------------------------------------------------------------|
B|-----------------------------------------------------------------------------|
G|-----------------------------------------------------------------------------|
D|-----------2-----------------------------------------------------------------|
A|-----------2-----------------------------------------------------------------|
E|-----------------------------------------------------------------------------|

C
~~
E. S +E E a Q E +E
e|------------------------------------14b16==(14)r-|
B|-12b12.5-----12-(12)b12.5------------------------|
G|-12b12.5-----12-(12)b12.5------------------------|
D|--------------------------14-12h14---------------|
A|-------------------------------------------------|
E|-------------------------------------------------|

E H..
e|-------------------------------------------------|
B|-------------------------------------------------|
G|---------0---------------------------------------|
D|---------2---------------------------------------|
A|---------3---------------------------------------|
E|-------------------------------------------------|

A/C#
~~~~
S S S +S S S S +S S S a +S a S +S S a +E
e|-12-14--------------12-14--------------12-14--------------12----------------------------|
B|-------15b17==(15)r-------15b17==(15)r-------15b17==(15)r----14pb15r(14)p12-------------|
G|----------------------------------------------------------------------------14b16==(14)-|
D|----------------------------------------------------------------------------------------|
A|----------------------------------------------------------------------------------------|
E|----------------------------------------------------------------------------------------|

E H..
e|----------------------------------------------------------------------------------------|
B|----------------------------------------------------------------------------------------|
G|--------2-------------------------------------------------------------------------------|
D|--------2-------------------------------------------------------------------------------|
A|--------4-------------------------------------------------------------------------------|
E|----------------------------------------------------------------------------------------|

D5 A#5 A5
~~~~~~~~~~~~~
+E +E S S S S S S S a S S a S S a S
e|--------------------15-----------19-------20-------21-------|
B|-------------11s=12----12-12s15-----15s17----17s18----18s19-|
G|-(14)-(14)r\------------------------------------------------|
D|------------------------------------------------------------|
A|------------------------------------------------------------|
E|------------------------------------------------------------|

E E +Q S E. E E
e|------------------------------------------------------------|
B|------------------------------------------------------------|
G|------------------------------------------------------------|
D|--------7----(7)--------------------------------------------|
A|--------5----(5)--------------8------------7----------------|
E|------------------------------6------------5--------3-------|

[Bridge]
N.C.
~~~~~~~~~~~~~~
a +Q a +Q +Q +Q
e|-22b24-(22)------22b24==(22)------(22)\-------(22)r\-----|
B|---------------------------------------------------------|
G|---------------------------------------------------------|
D|---------------------------------------------------------|
A|---------------------------------------------------------|
E|---------------------------------------------------------|

PM| PM| ~~~ PM|
S S S S S S S S S S Q S S
e|---------------------------------------------------------|
B|---------------------------------------------------------|
G|---------------------------------------------------------|
D|------------------------------------------[5]------------|
A|---------7p5--------------7p5-------7p==5----------------|
E|-------------0-0--------------0-0--------------------0-0-|

[Gtr IV]
PM| PM| ~~~ PM|
S S S S S S S S S S Q S S
e|---------------------------------------------------------|
B|---------------------------------------------------------|
G|---------------------------------------------------------|
D|-------------------------------------------5-------------|
A|---------7p5--------------7p5-------7p==5----------------|
E|-------------0-0--------------0-0--------------------0-0-|

W W
e|------------------------------|---------------------------------|
B|------------------------------|---------------------------------|
G|------------------------------|---------------------------------|
D|------------------------------|---------------------------------|
A|------------------------------|---------------------------------|
E|------------------------------|---------------------------------|

PM| PM| ~~~ PM| PM| PM| ~~~ PM|
S S S S S S S S S S Q S S S S S S S S S S S S Q S S
e|------------------------------|---------------------------------|
B|------------------------------|---------------------------------|
G|------------------------------|---------------------------------|
D|---------------------[7]------|---------------------[5]---------|
A|-7p5-----7p5-----7p5----------|-7p5-----7p5-----7p5-------------|
E|-----0-0-----0-0----------0-0-|-----0-0-----0-0-----------0--0--|

PM| PM| ~~~ PM| PM| PM| ~~~ PM|
S S S S S S S S S S Q S S S S S S S S S S S S Q S S
e|------------------------------|---------------------------------|
B|------------------------------|---------------------------------|
G|----------------------2-------|---------------------------------|
D|------------------------------|----------------------5---12-12--|
A|-7p5-----7p5-----7p5----------|-7p5-----7p5-----7p5-------------|
E|-----0-0-----0-0----------0-0-|-----0-0-----0-0-----------------|

S S S S S S S S S S S S S S E
e|---------------------------------------|
B|---------------------------------------|
G|-14p12----12s11----11s9----9s7---7s6---|
D|-------14-------12------11-----9-----7-|
A|---------------------------------------|
E|---------------------------------------|

S S S S S S S S S S S S S S E
e|---------------------------------------|
B|---------------------------------------|
G|---------------------------------------|
D|---------------------------------------|
A|-12p10----10s=9-----9s7----7s5---5s4---|
E|-------12-------10-------9-----7-----5-|

PM| PM| ~~~ PM| PM| PM| ~~~ PM|
S S S S S S S S S S Q S S S S S S S S S S S S Q S S
e|------------------------------|--------------------------------|
B|------------------------------|--------------------------------|
G|------------------------------|--------------------------------|
D|---------------------[5]------|---------------------[7]--------|
A|-7p5-----7p5-----7p5----------|-7p5-----7p5-----7p5------------|
E|-----0-0-----0-0----------0-0-|-----0-0-----0-0----------0-0---|

PM| PM| ~~~ PM| PM| PM| ~~~ PM|
S S S S S S S S S S Q S S S S S S S S S S S S Q S S
e|------------------------------|--------------------------------|
B|------------------------------|--------------------------------|
G|------------------------------|--------------------------------|
D|----------------------5-------|----------------------7---------|
A|-7p5-----7p5-----7p5----------|-7p5-----7p5-----7p5------------|
E|-----0-0-----0-0----------0-0-|-----0-0-----0-0----------0-0---|

[Outro]
PM| PM| ~~~ PM|
S S S S S S S S S S Q S S S S S S S S S S S S S S S S E
e|------------------------------|-17p15----15s14----14s12----12s10----10s9----|
B|------------------------------|-------17-------15-------14-------12------10-|
G|------------------------------|---------------------------------------------|
D|---------------------[5]------|---------------------------------------------|
A|-7p5-----7p5-----7p5----------|---------------------------------------------|
E|-----0-0-----0-0----------0-0-|---------------------------------------------|

PM| PM| ~~~ PM|
S S S S S S S S S S Q S S S S S S S S S S S S S S S S E
e|--------------------------0-0-|---------------------------------------------|
B|------------------------------|---------------------------------------------|
G|------------------------------|-14p12----12s11----11s=9-----9s=7-----7s6----|
D|----------------------5-------|-------14-------12-------11--------9-------7-|
A|-7p5-----7p5-----7p5----------|---------------------------------------------|
E|-----0-0-----0-0--------------|---------------------------------------------|

[Gtr IV]
W S S S S S S S S S S S S S S E
e|------------------------------|---------------------------------------------|
B|------------------------------|---------------------------------------------|
G|------------------------------|---------------------------------------------|
D|------------------------------|---------------------------------------------|
A|------------------------------|-12p10----10s=9-----9s=7-----7s=5-----5s4----|
E|------------------------------|-------12-------10--------9--------7-------5-|

PM--------------------------------| PM------------------------------|
S S S S S S S S S S S S S S E S S S S S S S S S S S S S S E
e|------------------------------------------------|----------------------------------------------|
B|------------------------------------------------|----------------------------------------------|
G|------------------------------------------------|----------------------------------------------|
D|---------------------------------------------12-|-------------------------------------------12-|
A|--------------12-----12----13----12----13h14----|-------------12----12----13----12----13h14----|
E|-12--15-12-15-----15----15----15----15----------|-12-15-12-15----15----15----15----15----------|

~~~
+Q H. W
e|------------------------------------------------|----------------------------------------------|
B|------------------------------------------------|----------------------------------------------|
G|------------------------------------------------|----------------------------------------------|
D|-(7)--------------------------------------------|----------------------------------------------|
A|------------------------------------------------|----------------------------------------------|
E|------------------------------------------------|----------------------------------------------|

PM------------------------------| PM------------------|
S S S S S S S S S S S S S S E S S S S S S S S S S S S +Q
e|----------------------------------------------|----------------------------------------------|
B|----------------------------------------------|----------------------------------------------|
G|----------------------------------------------|----------------------------------------------|
D|-------------------------------------------12-|----------------------------------------------|
A|-------------12----12----13----12----13h14----|-------------12----12----13-12-10-------------|
E|-12-15-12-15----15----15----15----15----------|-12-15-12-15----15----15----------12-(12)\----|

W H S S S S +Q
e|----------------------------------------------|----------------------------------------------|
B|----------------------------------------------|----------------------------------------------|
G|----------------------------------------------|----------------------------------------------|
D|----------------------------------------------|----------------------------------------------|
A|----------------------------------------------|-------------------------13-12-10-------------|
E|----------------------------------------------|----------------------------------12-(12)\----|

[Chorus 3]
E5 A5
Gtrs I, II
PM--------------------|
S S S S S S S S S S S S S S E
e|-------------------------------|
B|-------------------------------|
G|-------------------------------|
D|---------2---2---------------0-|
A|-2---2---0---0---1---0---1h2---|
E|-0-3-0-3---3---3---3---3-------|

E5 A5 E5 A5
PM--------------------| PM--------------------|
S S S S S S S S S S S S S S E S S S S S S S S S S S S S S E
e|-------------------------------|-------------------------------|
B|-------------------------------|-------------------------------|
G|-------------------------------|-------------------------------|
D|---------2---2---------------0-|---------2---2---------------0-|
A|-2---2---0---0---1---0---1h2---|-2---2---0---0---1---0---1h2---|
E|-0-3-0-3---3---3---3---3-------|-0-3-0-3---3---3---3---3-------|

E5 A5 E5 E5 A5
PM------------| PM--------------------|
S S S S S S S S S S S S Q S S S S S S S S S S S S S S E
e|----------------------------|-------------------------------|
B|----------------------------|-------------------------------|
G|----------------------------|-------------------------------|
D|---------2---2--------------|---------2---2---------------0-|
A|-2---2---0---0---1-0---2----|-2---2---0---0---1---0---1h2---|
E|-0-3-0-3---3---3-----3-0----|-0-3-0-3---3---3---3---3-------|

E5 A5
PM--------------------|
S S S S S S S S S S S S S S E
e|--------------------------------|
B|--------------------------------|
G|--------------------------------|
D|---------2---2---------------0--|
A|-2---2---0---0---1---0---1h2----|
E|-0-3-0-3---3---3---3---3--------|

E5 A5 E5 A5 E5
PM--------------------| PM------------|
S S S S S S S S S S S S S S E S S S S S S S S S S S S Q
e|-------------------------------|----------------------------|
B|-------------------------------|----------------------------|
G|-------------------------------|----------------------------|
D|---------2---2---------------0-|---------2---2--------------|
A|-2---2---0---0---1---0---1h2---|-2---2---0---0---1-0---2----|
E|-0-3-0-3---3---3---3---3-------|-0-3-0-3---3---3-----3-0----|

D.S. al Coda
E5 A5 E5 A5 E5
PM--------------------| PM------------|
S S S S S S S S S S S S S S E S S S S S S S S S S S S Q
e|-------------------------------|----------------------------|
B|-------------------------------|----------------------------|
G|-------------------------------|----------------------------|
D|---------2---2---------------0-|---------2---2--------------|
A|-2---2---0---0---1---0---1h2---|-2---2---0---0---1-0---2----|
E|-0-3-0-3---3---3---3---3-------|-0-3-0-3---3---3-----3-0----|

&
Gtrs I, II
S S S S S S S S S S S S S S E
e|-17p15----15s14----14s12----12s10----10s9----|
B|-------17-------15-------14-------12------10-|
G|---------------------------------------------|
D|---------------------------------------------|
A|---------------------------------------------|
E|---------------------------------------------|

[Gtr III]
S S S S S S S S S S S S S S E
e|---------------------------------------------|
B|---------------------------------------------|
G|-14p12----12s11----11s=9-----9s=7-----7s6----|
D|-------14-------12-------11--------9-------7-|
A|---------------------------------------------|
E|---------------------------------------------|

[Gtr IV]
S S S S S S S S S S S S S S E
e|---------------------------------------------|
B|---------------------------------------------|
G|---------------------------------------------|
D|---------------------------------------------|
A|-12p10----10s=9-----9s=7-----7s=5-----5s4----|
E|-------12-------10--------9--------7-------5-|

E5
5/4
|-3-|
S S S S S S Q S S S S S S E E.
e|---------------------------------*|
B|---------------------------------*|
G|---------------------------------*|
D|----------------------------2----*|
A|----------------0h1p0-------2----*|
E|-0-0-0-0---0----------3---3-0----*|

|-3-|
S S S S S S Q S S S S S S E E.
e|---------------------------------*|
B|---------------------------------*|
G|---------------------------------*|
D|----------------------------2----*|
A|----------------0h1p0-------2----*|
E|-7-0-0-0---0----------3---3-0----*|

************************************

| W - whole; H - half; Q - quarter; E - 8th; S - 16th; T - 32nd; X - 64th; a - acciaccatura
| + - note tied to previous; . - note dotted; .. - note double dotted
| Uncapitalized letters represent notes that are staccato (1/2 duration)
| Irregular groupings are notated above the duration line
| Duration letters will always appear directly above the note/fret number it represents the
| duration for. Duration letters with no fret number below them represent rests. Multi-
| bar rests are notated in the form Wxn, where n is the number of bars to rest for. Low
| melody durations appear below the staff
| (n) Ghost note
| h Hammer-on
| p Pull-off
| b Bend
| pb Pre-bend
| / Slide up
| s Slap

************************************
Tunning: Standard (E A D G B e)
Cowboys From Hell
-----------------

performed by Pantera

Hey I copyed this because it sounded right

Riff A w/flanger


-----------|---------------------------------|---------------------------------|
-----------|---------------------------------|---------------------------------|
-----------|---------------------------------|---------------------------------|
-----------|---------------------------------|---------------------------------|
-----------|---------------------------------|---------------------------------|
-0-0-0-0-0-|-0-0-0-0-0-0-0-0-0-0-0-0-0-0-0-0-|-0-0-0-0-0-0-0-0-0-0-0-0-0-0-0-0-|

Riff B

---------------------------------|-------------------------------|------------|
---------------------------------|-------------------------------|------------|
---------------------------------|-----------------------------7-|------------|
---------------------------------|---5---5-7-5-7-5-8-5-7-5-8h9---|------------|
---------------------------------|-7---7-------------------------|------------|
-0-0-0-0-0-0-0-0-0-0-0-0-0-0-0-0-|-------------------------------|------------|

-----Palm Mute----------------

Repeat Riff B two more times, then on the fourth, play Riff B.2

Riff B.2

----------------------------------------------------------------------------|
----------------------------------------------------------------------------|
----------------------------------------------------------------------------|
---5---5-7-5-7-5-8-7-5------------------------------------------------------|
-7---7-----------------7--(7)\----------------------------------------------|
----------------------------------------------------------------------------|

------P.M-------

Riff C

--------------------------------|
--------------------------------|
--------------------------------|
---------2---2---------------0--|
---------0---0---1---0---1h2----|
-0-3-0-3---3---3---3---3--------|

|------------P.M--------|

Repeat Riff C two more times, then play Riff C.2 on the fourth time

Riff C.2


------------------------------------|
------------------------------------|
------------------------------------|
---------2---2----------------------|
---------0---0---1-0----------------|
-0-3-0-3---3---3-----3-0------------|

|-------P.M-----|


Now play Riff C three more times and finish with Riff C.2 on the fourth time

Riff D

-----------------------------|
-----------------------------|
-----------------------------|
--------------------------0--|
--------------------0h1h2----|
-0-0--0--0--0--0--0----------|

|----P.M-----------|

Play Riff D two more times and finish with Riff D.2

Riff D.2

------------------------------|
------------------------------|
------------------------------|
--------------------0-------0-|
--------------0h1h2---0h1h2---|
-0-0--0--0--0-----------------|

|-----P.M.---|




Riff E


----------------------------|------------------------------------------------|
----------------------------|------------------------------------------------|
----------------------------|------------------------------------------------|
--------------------------0-|------------------------------------------------|
--------------------0h1h2---|--------------0h1p0-----0h1p0-------------------|
-0-0--0--0--0--0--0---------|-0-0--0--0--0-------3-3-------3-1---------------|

|----P.M-----------| |----P.M----|

Now repeat Riff E once more and go into Main Verses

Riff F (Main Verses)


--------------------------|---------------------------------------------------|
--------------------------|---------------------------------------------------|
--------------------------|---------------------------------------------------|
--------------------------|--------------------------0------------------------|
--------------------------|--------------------0h1h2--------------------------|
-0-0--0--0--0--0--0-0-0-0-|-0-0--0--0--0--0--0--------------------------------|

|---------------P.M---------------------------|

--------------------------|---------------------------------------------------|
--------------------------|---------------------------------------------------|
--------------------------|---------------------------------------------------|
--------------------------|---------------------------------------------------|
--------------------------|--------------0h1p0-----0h1p0----------------------|
-0-0--0--0--0--0--0-0-0-0-|-0-0--0--0--0-------3-3-------3-1------------------|

|----------------P.M.-------------------|

Now Repeat Riff F once more and continue into Riff G

Riff G

-----------------------------|------------------------------------------------|
-----------------------------|------------------------------------------------|
-----------------------------|------------------------------------------------|
-5-5-5-5-5-5-5-5-5-5-5--6--6-|-5-5-5-5-5-5-5-5-5-5-5--8--7--6-----------------|
-5-5-5-5-5-5-5-5-5-5-5--6--6-|-5-5-5-5-5-5-5-5-5-5-5--8--7--6-----------------|
-3-3-3-3-3-3-3-3-3-5-3--4--4-|-3-3-3-3-3-3-3-3-3-3-3--6--5--4-----------------|

|------P.M.-----------| |------P.M-----------|

--------------------------|---------------------------------------------------|
--------------------------|---------------------------------------------------|
--------------------------|---------------------------------------------------|
--------------------------|---------------------------------------------------|
--------------------------|---------------------------------------------------|
-0-0--0--0--0--0--0-0-0-0-|-0-0--0--0--0-6-5-3-0------------------------------|

|----------------P.M--------------------|


Now for the Chorus (here we come, reach for your gun...), play Riff C three
times and finish with Riff C.2 on the fourth, then finish the process by
doing the same thing again.


When going back to the 2nd verse, play Riff D/Riff D.2 once, then play Riff E
and go back to the verses.


If you are going into the SOLO after the verses at this point instead, then
play Riff H before solo.

Riff H

--------------------------|
--------------------------|
--------------------------|
---------2---2-----5-4-3--|
---------0---0-----5-4-3--|
-0-3-0-3---3---3---3-2-1--|

|---P.M---------|

SOLO


~~~~~~ ~~~~~~~~~~~~~ ~~~~~~ A.H.~~
-------------|-------------------|--------------------|----------------------|
-------------|-------------------|--------------------|----------------------|
-------------|-------------------|--------------------|-15---15---15----15---|
-------------|-8---8---8---------|-(8)\/14------(14)\-|---14---14----14------|
-7------(7)\-|---7---7-----------|--------------------|----------------------|
-------------|-------------------|--------------------|----------------------|

~~~
---------|--------------------------------------------------------------------|
---------|--------------------------------------------------------------------|
---(15)\-|--------------------------------------------------------------------|
---------|-------------------------------------11-12-15-11-12-15--------------|
---------|-------------------11-12-15-11-12-15--------------------------------|
---------|-11-12-15-11-12-15--------------------------------------------------|


-------------------|-------------------11-12-15p12p11-x-11-12-15p12p11-15p12--|
-------------------|-11-12-15-11-12-15----------------------------------------|
-11-12-15-11-12-15-|----------------------------------------------------------|
-------------------|----------------------------------------------------------|
-------------------|----------------------------------------------------------|
-------------------|----------------------------------------------------------|


----|
-15^(1.5)------12-14-17p14p12--12-14-17p14p12--12-14-17p14p12-12-14-17p14p12-|
-----------------------------------------------------------------------------|
-----------------------------------------------------------------------------|
-----------------------------------------------------------------------------|
-----------------------------------------------------------------------------|
-----------------------------------------------------------------------------|

-12h15h19p15p12h15-20p15p12h15-----------------------------------------------|
-------------------------------20p15p12h15p12--------------------------------|
----------------------------------------------20p15p12h15p12-----------------|
-------------------------------------------------------------20p15p12h15p12--|
-----------------------------------------------------------------------------|
-----------------------------------------------------------------------------|


~~~~~~ ~~~~~~ --|
------------------------|----------------------------|-----------------------|
------------------------|----------------------------|-15^(1)--(15)^(1)------|
------------------------|--15----15----15------(15)\-|-----------------------|
14-(14)-------(14)\5/---|-----14----14---------------|-----------------------|
------------------------|----------------------------|-----------------------|
------------------------|----------------------------|-----------------------|

~~~~~~
-15----------------------18----18----18^(1.5)--(18)\--------|----------------|
---15^(1)-----(15)\8/-17----17----17------------------------|----------------|
-------------------------------------------------------7/14-|----------------|
------------------------------------------------------------|----------------|
------------------------------------------------------------|----------------|
------------------------------------------------------------|----------------|


-----------------------------------------------------------------------------|
-12---------------12----------------12---------------12----------------------|
---15-14-12-14-15----15-14-12-14-15---15-14-12-14-15---15-14-12-14-15--------|
-----------------------------------------------------------------------------|
-----------------------------------------------------------------------------|
-----------------------------------------------------------------------------|

A.H. ~~
------------------------------14^(1)--|-12-14-------12-15------12-15----------|
-12^(1/4)-12^(1/4)--------------------|-------15^(1)-----15^(1)-----15^(1)----|
-12^(1/4)-12^(1/4)--------------------|---------------------------------------|
-------------------14-12h14-----------|---------------------------------------|
--------------------------------------|---------------------------------------|
--------------------------------------|---------------------------------------|

-| ~~~~
-12-----------------------|--------------15---------19-------20------21-------|
---14^(1/2)-(14)p12-------|--------11/12---12-12/15----15/17----17/18--18/19--|
-------------------14^(1)-|-(14)\---------------------------------------------|
--------------------------|---------------------------------------------------|
--------------------------|---------------------------------------------------|
--------------------------|---------------------------------------------------|


BRIDGE
A.H. A.H.

-----------------------~~~----|----------------------~~~---|-----------------|
------------------------------|----------------------------|-----------------|
------------------------------|----------------------2-----|-----------------|
-2p0-----2p0-----2p0--5-------|-2p0-----2p0-----2p0--------|-----------------|
------------------------------|----------------------------|-----------------|
-----0-0-----0-0--------0-0---|-----0-0-----0-0--------0-0-|-----------------|

-P.M.- -P.M.- -P.M.- -P.M- -P.M- -P.M.-


A.H.

-----------------------~~~-----|---------------------------------------------|
-------------------------------|---------------------------------------------|
-------------------------------|-14p12---12\11----11\9----9\7---7\6----------|
-2p0-----2p0-----2p0--5---12-12|------14-------12------11-----9-----7--------|
-------------------------------|---------------------------------------------|
-----0-0-----0-0---------------|---------------------------------------------|

-P.M- -P.M-

A.H. A.H.

-----------------------~~~----|----------------------~~~---|-----------------|
------------------------------|----------------------------|-----------------|
------------------------------|----------------------2-----|-----------------|
-2p0-----2p0-----2p0--5-------|-2p0-----2p0-----2p0--------|-----------------|
------------------------------|----------------------------|-----------------|
-----0-0-----0-0--------0-0---|-----0-0-----0-0--------0-0-|-----------------|

-P.M.- -P.M.- -P.M.- -P.M- -P.M- -P.M.-


A.H.

----------------------~~~-0-x-|-17p15---15\14----14\12----12\10----10\9------|
------------------------------|------17-------15-------14-------12------10---|
------------------------------|----------------------------------------------|
-2p0-----2p0-----2p0--5-------|----------------------------------------------|
------------------------------|----------------------------------------------|
-----0-0-----0-0--------------|----------------------------------------------|

-P.M- -P.M-


--------------------------|
--------------------------|
--------------------------|
-8-7-5--------------------|
--------7-(7)\------------|
--------------------------|


Now continue the song by playing Riff C 3 times, then finish with Riff C.2,
then play Riff C 3 more times and finish with Riff C.2

Finally, play Riff C once and Riff C.2 once


At the end of the song...

A.H. A.H.

-----------------------~~~----|----------------------~~~---|-----------------|
------------------------------|----------------------------|-----------------|
------------------------------|----------------------2-----|-----------------|
-2p0-----2p0-----2p0--5-------|-2p0-----2p0-----2p0--------|-----------------|
------------------------------|----------------------------|-----------------|
-----0-0-----0-0--------0-0---|-----0-0-----0-0--------0-0-|-----------------|

-P.M.- -P.M.- -P.M.- -P.M- -P.M- -P.M.-


-17p15----15\14----14\12----12\10----10\9------|------------------------------|
-------17-------15-------14-------12-------10--|------------------------------|
-----------------------------------------------|------------------------------|
-----------------------------------------------|--------------------------2---|
-----------------------------------------------|---------------0h1p0------2---|
-----------------------------------------------|-0-0-0-0--0----------3--3-0---|

That's it! Have fun and good luck.

Notation
--------


h - hammer
p - pull off

~~~ - vibrato

^ - indicates bend (followed by a number in parentheses indicating magnitude
of bend - i.e. ^(1.5) indicates bend up one and a-half
steps)

A.H. - artificial harmonic

P.M. - palm mute
Song info
Cowboys From Hell
Pantera
2001
  • Rock
  • Speed Metal
  • Thrash
Alternative tracks
Similar songs
War Eternal - Arch Enemy
In Your Face - Children of Bodom
Until It Sleeps - Metallica
Never Neverland - Annihilator

Hi! Hope you enjoy backing track experience.
If you want to help us in the development of the project, feel free to donate!