State Of Love And Trust - Pearl Jam
00:00 / 00:00
Tabs and lyrics
Tunning: Standard (E A D G B e)
BRYAN.STEELE@ASU.Edu

State Of Love And Trust - Recorded by Pearl
Jam

Transcribed by Bryan Steele - Sept 23, 1994

Send any questions or comments to: bsteele@asu.edu



E-|---------------------------------------------------------------------------|
B-|--10----10---r---r---r----5--5--5------------------------------------------|
G-|--10----10---a---a---a----5--5--5------------------------------------------|
D-|--10----10---k---k---k----7--7--7---7--7-----------------------------------|
A-|--8-----8----e---e---e----7--7--7---7--7-----------------------------------|
E-|--------------------------5--5--5---5--5-----------------------------------|

Start out in F - get the rake rhythm down - then move to A


E-|--------------------------------------|------------------------------------|
B-|--------------------------------------|------------------------------------|
G-|------------10----10--------7/\-7-5---|-------10----10-------7/\5--7--5----|
D-|--------10-----10----10-10----------7-|----10----10----10-10---------------|
A-|--8--8--------------------------------|--8---------------------------------|
E-|--------------------------------------|------------------------------------|
State of love and trust is a
...

This is where the lyrics start. Mike plays this part while Stone sits back
and jams the F to A pattern. Don't take this part of the tab to heart. This
is where you should do some improvisation and a little jamming of your own.
If you listen to this live, you'll get the picture.

E-|----------------------------|----------------------------------------------|
B-|--10-r-10-r-10-----5-5------|--10--10-r--r--r--5--5--5--5-5---------r-r-r--|
G-|--10-a-10-a-10-----5-5------|--10--10-a--a--a--5--5--5--5-5---5-5-5-a-a-a--|
D-|--10-k-10-k-10-----7-7--7---|--10--10-k--k--k--7--7--7--7-7---5-5-5-k-k-k--|
A-|--8--e-8--e-8------7-7--7---|--8---8--e--e--e--7--7--7--7-7---3-3-3-e-e-e--|
E-|-------------------5-5--5---|------------------5--5--5--5-5----------------|
Smell that on my hands-ands... And I listen for
the

Here is the chord pattern for the chorus: F A C G A B C D


E-|---------------------------------------------------------------------------|
B-|-----------------r-r-r-----------------------------------------------------|
G-|-------------2-2-a-a-a--4-4-4-4-4--5-5-5-5-5--7-7-7-7-7--------------------|
D-|--5-5-5-5-5--2-2-k-k-k--4-4-4-4-4--5-5-5-5-5--7-7-7-7-7--------------------|
A-|--5-5-5-5-5--0-0-e-e-e--2-2-2-2-2--3-3-3-3-3--5-5-5-5-5--------------------|
E-|--3-3-3-3-3----------------------------------------------------------------|
voice inside my head - nothing - I'll do this one myself

Then there is a small variagion to the chorus. The following tab will
show
the change in the chords directly above. The second variation of the
chorus
is as follows: F A C G A G F D

E-|---------------------------------------------------------------------------|
B-|-----------------r-r-r-----------------------------------------------------|
G-|-------------2-2-a-a-a--------------------------7-7-7-7--------------------|
D-|--5-5-5-5-5--2-2-k-k-k--5-5-5-5-5-5-5--3-3-3-3--7-7-7-7--------------------|
A-|--5-5-5-5-5--0-0-e-e-e--5-5-5-5-5-5-5--3-3-3-3--5-5-5-5--------------------|
E-|--3-3-3-3-3-------------3-3-3-3-3-3-3--1-1-1-1-----------------------------|
from both sides of ....

There is the variation of the chorus. Simple.

The tab below is just a little throw in I thought might help. This is this
simple little solo Mike plays after Eddie screams--

Myself! Myself! YEAH! YEAH!

E-|--------------------------------------------|------------------------------|
B-|--------------------------------------------|------------------------------|
G-|--12h-14-14-14-14-12------------------------|------------------------------|
D-|---------------------14-14--14--14-12-------|------------------------------|
A-|--------------------------------------15-12-|-15-15-15-14-15-14------------|
E-|--------------------------------------------|------------------------------|

This part is the variation
that Mike throws in.

Good luck! Send me questions or comments about this tab or any other Pearl
Jam song you would like to learn how to play.

Bryan Steele - bsteele@asu.edu



************************************

| r Release
| h Hammer-on

************************************
Tunning: Standard (E A D G B e)
#-----------------------------------------------------------------------------#
#-- File created with Instab - http://www.pconline.com/~smcarey/instab.html --#
#-----------------------------------------------------------------------------#

Author/Artist: Mike McCready / Jeff Ament
Title: State Of Love And Trust
Album: Singles Soundtrack

The lyrics are just a guide and are not in perfect time. Anywhere you see something
like *9r7 it means pre-bend a full step on the 7th fret and release.

INTRO

-|-5----5-----x--x--5--5-|----5--5-----------5-----------5-|------------------|
-|-6----6-----x--x--5--5-|----5--5-----------5-----------6-|------------------|
-|-5----5-----x--x-----5-|----5--5-----------5-5---------5-|------------------|
-|-7----7-----x--x-----5-|----7--7-----------7-5---------7-|------------------|
-|-8----8-----x--7-----5-|----7--7-----------7-5---------7-|------------------|
-|-5----5--------------5-|----5--5-----------5-5---------5-|------------------|
Stone Rhy Fig 1


-|-5--5---------------|----5--5--------5------5-|-----------------------------|
-|-6--6---------------|----5--5--------5------6-|-----------------------------|
-|-5--5----x--x--x----|----5--5--------5--5---5-|-----------------------------|
-|-7--7----x--x--x--5-|----7--7--------7--5---7-|-----------------------------|
-|-8--8----x--x--x--5-|----7--7--------7--5---8-|-----------------------------|
-|-5--5----5--5--5--5-|----5--5--------5--5---5-|-----------------------------|
-Harm.- End Rhy Fig 1


-|-5-----5----------------|---------------------------5-|---------------------|
-|-6-----6--------------5-|-----5--5--------5--5---5--6-|---------------------|
-|-5-----5--------------5-|-----5--5--------5--5---5--5-|---------------------|
-|-7-----7--------------7-|-----7--7--------7--7---7--7-|---------------------|
-|-8-----8--------------7-|-----7--7--------7--7---7--7-|---------------------|
-|-5-----5-----5--5--5--5-|-----5--5--------5--5---5--5-|---------------------|
Mike w/RF 1 -Harm.-
--------------------Rhy Fig 1A---------------------------


-|-5---------5-------------------|--------------------------|-----------------|
-|-6---------6-----------------5-|------5--5------5---------|-----------------|
-|-7---------7-----------------5-|------5--5------5---------|-----------------|
-|-----------------------------7-|------7--7------7--5------|-----------------|
-|-8---------8-----------------7-|------7--7------7--5----8-|-----------------|
-|-5---------5--------5--5--5--5-|------5--5------5-----8---|-----------------|
-Harm.-


-|-5---------5-------------------|----------5-------5----------|--------------|
-|-6---------6-----------------5-|------5---5-------5----------|--------------|
-|-7---------7-----------------5-|------5---5-------5--0--0----|--------------|
-|-----------------------------7-|------7---7-------7--0--0--5-|--------------|
-|-8---------8-----------------7-|------7---7-------7--------5-|--------------|
-|-5---------5--------5--5--5--5-|------5---5-------5--------5-|--------------|
-Harm.-
w/ Rhy Fig 1 (1st 3 bars only)


-|-5----5-------------------|----------------------------|--------------------|
-|-6----6-------------------|----------------------------|--------------------|
-|-7----7-----------------5-|-----5--5-----------0--0----|--------------------|
-|------------------------7-|-----7--7-----------0--0--x-|--------------------|
-|-8----8-----------------7-|-----7--7-----------------x-|--------------------|
-|-5----5--------5--5--5--5-|-----5--5-------------------|--------------------|
-Harm.- w/ Fill 1


-|-5--5------------------|----------------------------------------------------|
-|-5--5------------------|----------------------------------------------------|
-|-5--5------------------|----------------------------------------------------|
-|-7--7------------------|----------------------------------------------------|
-|-7--7----------------7-|----------------------------------------------------|
-|-5--5------------------|----------------------------------------------------|
Stone Fill 1


1st VERSE (Stone top / Mike Bottom)


State of love and trust is a
-|----------1------------1-------0---|--------------------------0---------x--|
-|----------3------------3-------1---|--------------------------1---------x--|
-|----------2------------2-------2---|--------------------------2---------x--|
-|----------3------------3-------2---|--------------------------2---------x--|
-|-------------------------------0---|----------0-----0---x-----0---------x--|
-|-----------------------------------|---------------------------------------|
Stone Verses

-|-----------------------------------|---------------------------------------|
-|------------------6----5-----------|---------------------------------------|
-|--------------5----------------7b9-|----r7p5------------------5------------|
-|----------7----------------7-------|---------7----------7-----5------------|
-|-8---------------------------------|--------------------0-----7------------|
-|-----------------------------------|---------------------------------------|
Mike Verses


bust in' down the pre-text
-|-x---1-----------------1---1---0---|----------------0-------------0-|-------|
-|-x---3-----------------3---3---1---|----------------1-------------1-|-------|
-|-x---2-----------------2---2---2---|----------------2-------------2-|-------|
-|-x---3-----------------3---3---2---|----------------2-------------2-|-------|
-|-x-----------------------------0---|-----0--0--x----0-------------0-|-------|
-|-----------------------------------|--------------------------------|-------|


-|----------------------------------|---------------------------------|-------|
-|--------------6-------------------|---------------------------------|-------|
-|-------------------5----------7b8-|-b9r7----0--7----5vvvvvvvvvvvvv--|-------|
-|---------7--------------7---------|---------------------------------|-------|
-|-----8----------------------------|---------------------------------|-------|
-|----------------------------------|---------------------------------|-------|

since their plays and preachers went to
-|-x------1----------1---------0---|----------------------------|-------------|
-|-x------3----------3---------1---|----------------------------|-------------|
-|-x------2----------2---------2---|----------------------------|-------------|
-|-x------3----------3---------2---|--------------------0-----x-|-------------|
-|-x---------------------------0---|-----------0--0--0----------|-------------|
-|---------------------------------|----------------------------|-------------|


-|---------------------------------|----------------------------|-------------|
-|--------------6------------------|----------------------5-----|-------------|
-|-------------------x---------7b9-|-----r7p5-------------5---0-|-------------|
-|-----------7------------7--------|----------7-----------------|-------------|
-|--------8------------------------|----------------------------|-------------|
-|---------------------------------|----------------------------|-------------|

heaven and to court uh huh
-|------1----1--1----------x-----x-|-x----0---0---0---0-----------|-----------|
-|------3----3--3----------x-----x-|-x----1---1---1---1-----------|-----------|
-|------2----2--2----------x-----x-|-x----2---2---2---2---------0-|-----------|
-|-x----3----3--3----------x-----x-|-x----2---2---2---2---------2-|-----------|
-|---------------------------------|------0---0---0---0---------0-|-----------|
-|---------------------------------|------------------------------|-----------|


-|---------------------------------|------------------------------|-----------|
-|--------------6----------------5-|------5---5-------------------|-----------|
-|-----------5-------x-----------5-|------5---5----------------5\-|-----------|
-|------------------------7--------|------5---5----------------5\-|-----------|
-|------8--------------------------|------------------------------|-----------|
-|---------------------------------|------------------------------|-----------|

And the signs are passin'
-|------1------------1---------0---|------------------------------|-----------|
-|------3------------3---------1---|------------------------------|-----------|
-|-0----2------------2---------2---|-----------------------0------|-----------|
-|-2----3------------3---------2---|-----------------------2----2-|-----------|
-|-0---------------------------0---|-----0-----0-----x-----0------|-----------|
-|---------------------------------|------------------------------|-----------|


-|---------------------------------|------------------------------|-----------|
-|---------------6-----------------|-----------------------5----x-|-----------|
-|--------------------------x--7b9-|----r7-----------------5----x-|-----------|
-|-----------7---------------------|----------7vvvvvvvv-7--5----x-|-----------|
-|------8--------------------------|------------------------------|-----------|
-|---------------------------------|------------------------------|-----------|

grip the wheel can't a-read it
-|-------1----------------------0--|-------x----x----x-----0----------|-------|
-|-------3----------------------1--|-------x----x----x-----1----------|-------|
-|-------2-----------0----------2--|-------x----x----x-----2----------|-------|
-|-3-----3-----------0----------2--|-------x----x----x-----2-------2--|-------|
-|------------------------------0--|-------x----x----x-----0----------|-------|
-|---------------------------------|----------------------------------|-------|


-|---------------------------------|----------------------------------|-------|
-|---------------6---6-------------|----------------------------------|-------|
-|---------------5-------------7b8-|-b9----*9r7p5----7-----5vvvvvvvvv-|-------|
-|-----------7---------------------|----------------------------------|-------|
-|------8--------------------------|----------------------------------|-------|
-|---------------------------------|----------------------------------|-------|

Sac ri fice re ceiv ing the
-|------1----------------------0---|------0------------------------1--|-------|
-|------3----------------------1---|------1------------------------3--|-------|
-|------2------------0--x------2---|------2----------0----2--------2--|-------|
-|-3----3------------0--x------2---|------2----------0----2--------3--|-------|
-|-----------------------------0---|------0---------------0-----------|-------|
-|---------------------------------|----------------------------------|-------|


-|---------------------------------|----------------------------------|-------|
-|---------------6-----------------|----------------------5-----------|-------|
-|---------------5-------------7b8-|-b9r7p5---------------5-----------|-------|
-|-----------7---------------------|--------7--------7----5-----------|-------|
-|------8-----------------0--------|-----------------0----------------|-------|
-|------------------------0--------|----------------------------------|-------|

The smell that's on my hands hands yeah
-|-1------1--1-----1--------|-0--0----0------0-0-0-----|----------------------|
-|-3------3--3-----3--------|-1--1----1------1-1-1-----|----------------------|
-|-2------2--2-----2---0--0-|-2--2----2------2-2-2-----|----------------------|
-|-3------3--3-----3---0--0-|-2--2----2------2-2-2---3-|----------------------|
-|--------------------------|-0--0----0------0-0-0-----|----------------------|
-|--------------------------|--------------------------|----------------------|


-|-5------5--5-----5---5--5-|-5--5----5--5--------x--x-|----------------------|
-|-6------6--6-----6---6--6-|-5--5----5--5--------x--x-|----------------------|
-|-5------5--5-----5---5--5-|-5--5----5--5---0----x--x-|----------------------|
-|--------7--7-----7---7--7-|-7--7----7--7---0---------|----------------------|
-|--------8--8-----8---8--8-|-7--7----7--7-------------|----------------------|
-|--------5--5-----5---5--5-|-5--5----5--5-------------|----------------------|

1st Chorus (Both Guitars)


And I lis ten
-|-1-----1-----1--1-----0-|----0--0---0------------------|--------------------|
-|-1-----1-----1--1-----1-|----1--1---1-------3--3--3--3-|--------------------|
-|-2-----2-----0--0-----2-|----2--2---2-------0--0--0--0-|--------------------|
-|-3-----3-----3--3-----2-|----2--2---2-------0--0--0--0-|--------------------|
-|-0-----0-----0--0-----0-|----0--0---0-------2--2--2--2-|--------------------|
-|------------------------|------------------------------|--------------------|

Rhy Fig 2

for the voice inside my head
-|-------0--------------3-|-----3---3-----3--3--3--3--|-----------------------|
-|-3-----1-----0--0--0--3-|-----3---3-----3--3--3--3--|-----------------------|
-|-0-----0-----0--0--0--0-|-----0---0-----0--0--0--0--|-----------------------|
-|-------2-----2--0--0--0-|-----0---0-----0--0--0--0--|-----------------------|
-|-3-----3-----3----------|---------------------------|-----------------------|
-|----------------------3-|-----3---3-----3--3--3--3--|-----------------------|

nothin'
-|-0----0----0--0--0----|----------------------------|------------------------|
-|-1----1----1--1--1----|----------------------------|------------------------|
-|-2----2----2--2--2--4-|------4---4------4--4--4----|------------------------|
-|-2----2----2--2--2--4-|------4---4------4--4--4----|------------------------|
-|-0----0----0--0--0--2-|------2---2------2--2--2--3-|------------------------|
-|----------------------|----------------------------|------------------------|

I'll do this one myself
-|-------------------------|-------------------------|------------------------|
-|-5-----5--5---5--5-----7-|-----7--7-----7--7--x--x-|------------------------|
-|-5-----5--5---5--5-----7-|-----7--7-----7--7--x--x-|------------------------|
-|-5-----5--5---5--5-----7-|-----7--7-----7--7--x--x-|------------------------|
-|-3-----3--3---3--3--0--5-|-----5--5-----5--5--x--x-|------------------------|
-|-------------------------|-------------------------|------------------------|
w/ Fill 2 End Rhy Fig 2

-|------2--2------------------|-----------------------------------------------|
-|------3--3------------------|-----------------------------------------------|
-|------2--2------2---------0-|-----------------------------------------------|
-|------0--0------0-----------|-----------------------------------------------|
-|----------------------------|-----------------------------------------------|
-|----------------------------|-----------------------------------------------|
Fill 2


2nd Verse (Stone top / Mike Bottom)


Lay her down as priest does
-|--------1-----------------0-|------------0---------------0---x-|------------|
-|--------1-----------------1-|------------1---------------1---x-|------------|
-|--------2--------0--------2-|------------2---------------2---x-|------------|
-|--------3--------0--------2-|------------2---------------2---x-|------------|
-|--------0-----------------0-|------------0---------------0---x-|------------|
-|----------------------------|----------------------------------|------------|
Stone 2nd Verse

-|------------------------------|--------------------------5-----|------------|
-|--------------6---------------|--------------------------5-----|------------|
-|-----------5-----x--------7b9-|----r7p5------------------5-----|------------|
-|--------7------------0--------|----------7---------7-----5-----|------------|
-|-8-------------------0--------|--------------------------------|------------|
-|------------------------------|--------------------------------|------------|
Mike 2nd verse


should the lord be a counting
-|-x----1---------------0-|----------0------------------------------|---------|
-|-x----1---------------1-|----------1------------------------------|---------|
-|-x----2--------0------2-|----------2---------------0--------------|---------|
-|-x----3--------0------2-|----------2---------------0----7--3------|---------|
-|-x----0---------------0-|----------0------------------------------|---------|
-|------------------------|-----------------------------------------|---------|


-|------------------------|-----------------------------------------|---------|
-|-x------------6---------|-----------------------------------------|---------|
-|-x--------------5---7b8-|-b9-----*9r7p5---7--------5vvvvvvvvvvvvv-|---------|
-|---------7--------7-----|-----------------------------------------|---------|
-|-----8------------------|-----------------------------------------|---------|
-|------------------------|-----------------------------------------|---------|
Rake


will be in my honor make it pain
-|-1--------1--------------0---|------x----x----x---------x----x-|------------|
-|-1--------1--------------1---|------x----x----x---------x----x-|------------|
-|-2--------2--------------2---|------x----x----x----0----x----x-|------------|
-|-3--------3--------------2---|------x----x----x----0----x----x-|------------|
-|-0--------0--------------0---|------x----x----x---------x----x-|------------|
-|-----------------------------|---------------------------------|------------|


-|-----------------------------|---------------------5-----------|------------|
-|----------6-----6------------|---------------------5-----------|------------|
-|-------------------------7b9-|-----r7p5------------5-----------|------------|
-|------7-------------7--------|----------7----------------------|------------|
-|-8---------------------------|---------------------------------|------------|
-|-----------------------------|---------------------------------|------------|

painfully quick uh huh
-|-x------x--1--------1----1------|---x---0---0-------0--0--0----|------------|
-|-x------x--1--------1----1------|---x---1---1-------1--1--1----|------------|
-|-x------x--2--------2----2----0-|---x---2---2-------2--2--2--0-|------------|
-|-x------x--3--------3----3----0-|---x---2---2-------2--2--2--0-|------------|
-|-x------x--0--------0----0------|---x---0---0-------0--0--0----|------------|
-|--------------------------------|------------------------------|------------|


-|--------------------------------|------------------------------|------------|
-|---------------6----6---------5-|-------5---5------------------|------------|
-|------------------------------5-|-------5---5--------------5\--|------------|
-|-----------7------------------7-|-------7---5--------------5\--|------------|
-|--------8-----------------------|------------------------------|------------|
-|--------------------------------|------------------------------|------------|


Promises are whispered
-|--------1------------1----------0---|-----------------------0--------|------|
-|--------1------------1----------1---|-----------------------1--------|------|
-|--------2------------2----------2---|-----------------------2--------|------|
-|--------3------------3----------2---|-----------------------2------2-|------|
-|--------0------------0----------0---|--------0----0----0----0--------|------|
-|------------------------------------|--------------------------------|------|


-|------------------------------------|--------------------------------|------|
-|------------------6-----------------|-----------------------5--------|------|
-|--------------------------------7b9-|------r7p5-------------5--------|------|
-|-------------7-----------0----------|-----------7------7----5--------|------|
-|--------8---------------------------|------------------0----0--------|------|
-|------------------------------------|--------------------------------|------|

in the days of darkness
-|--------1----------------------0----|-----------------------------------|---|
-|--------1----------------------1----|-----------------------------------|---|
-|--------2------------0---------2----|--------------------0---0----------|---|
-|-3------3------------0---------2----|--------------------0---0---3------|---|
-|--------0----------------------0----|--------0---0---x------------------|---|
-|------------------------------------|-----------------------------------|---|


-|------------------------------------|-----------------------------------|---|
-|------------------6-----------------|-----------------------------------|---|
-|--------------------------------7b9-|-------*9r7p5--7-----5vvvvvvvvvvvv-|---|
-|------------7---------------0-------|-----------------------------------|---|
-|--------8---------------------------|-----------------------------------|---|
-|------------------------------------|-----------------------------------|---|

want to be enlightened like I want
-|-1-------------------------------0--|---------0------------------------|----|
-|-1-------------------------------1--|---------1------------------------|----|
-|-2----------------0--------------2--|---------2--------------0---0-----|----|
-|-3----------------0--------------2--|---------2--------------0---0---3-|----|
-|-0-------------------------------0--|---------0------------------------|----|
-|------------------------------------|----------------------------------|----|


-|------------------------------------|----------------------------------|----|
-|------------6-----------------------|------------------------5---------|----|
-|--------------------------------7b9-|------r7p5--------------5---------|----|
-|------7-----------7-------0---------|-----------7------------5---------|----|
-|-8------------------------0---------|----------------------------------|----|
-|------------------------------------|----------------------------------|----|

to be told the end end ah
-|-1-----1--1-----1--------|-0-------0----0----x-----------|------------------|
-|-1-----1--1-----1--------|-1-------1----1----x-----------|------------------|
-|-2-----2--2-----2--------|-2-------2----2----x--0--x-----|------------------|
-|-3-----3--3-----3--0---2-|-2-------2----2----x--0--x---3-|------------------|
-|-0-----0--0-----0--------|-0-------0----0----x-----------|------------------|
-|-------------------------|-------------------------------|------------------|


-|-----------------------5-|------5--5---------5--5--5---5-|------------------|
-|-------6--6-----6--6---5-|------5--5---------5--5--5---5-|------------------|
-|-------5--5-----5--5---5-|------5--5---------5--5--5---5-|------------------|
-|-------7--7-----7--7---5-|------5--5---------5--5--5---5-|------------------|
-|-------8--8-----8--8---0-|------0--0---------0--0--0---0-|------------------|
-|-------5--5-----5--5-----|-------------------------------|------------------|

Chorus 2 (Both Guitars)


And the barrel shakes and
-|-1-----1-----1--1-----0-|----0--0---0------------------|--------------------|
-|-1-----1-----1--1-----1-|----1--1---1-------3--3--3--3-|--------------------|
-|-2-----2-----0--0-----2-|----2--2---2-------0--0--0--0-|--------------------|
-|-3-----3-----3--3-----2-|----2--2---2-------0--0--0--0-|--------------------|
-|-0-----0-----0--0-----0-|----0--0---0-------2--2--2--2-|--------------------|
-|------------------------|------------------------------|--------------------|
Rhy Fig 2


a directly at my head
-|-------0--------------3-|-----3---3-----3--3--3--3--|-----------------------|
-|-3-----1-----0--0--0--3-|-----3---3-----3--3--3--3--|-----------------------|
-|-0-----0-----0--0--0--0-|-----0---0-----0--0--0--0--|-----------------------|
-|-------2-----2--0--0--0-|-----0---0-----0--0--0--0--|-----------------------|
-|-3-----3-----3----------|---------------------------|-----------------------|
-|----------------------3-|-----3---3-----3--3--3--3--|-----------------------|

Oh help me
-|-0----0----0--0--0----|----------------------------|------------------------|
-|-1----1----1--1--1----|----------------------------|------------------------|
-|-2----2----2--2--2--4-|------4---4------4--4--4----|------------------------|
-|-2----2----2--2--2--4-|------4---4------4--4--4----|------------------------|
-|-0----0----0--0--0--2-|------2---2------2--2--2--3-|------------------------|
-|----------------------|----------------------------|------------------------|

help me from myself
-|-------------------------|-------------------------|------------------------|
-|-5-----5--5---5--5-----7-|-----7--7-----7--7--x--x-|------------------------|
-|-5-----5--5---5--5-----7-|-----7--7-----7--7--x--x-|------------------------|
-|-5-----5--5---5--5-----7-|-----7--7-----7--7--x--x-|------------------------|
-|-3-----3--3---3--3--0--5-|-----5--5-----5--5--x--x-|------------------------|
-|-------------------------|-------------------------|------------------------|
End Rhy Fig 2


ANd I listen
-|-1----1----1--1--1--0--|------0--0------0----------|------------------------|
-|-1----1----1--1--1--1--|------1--1------1--3--3--3-|------------------------|
-|-2----0----0--0--0--2--|------2--2------2--0--0--0-|------------------------|
-|-3----3----3--3--3--2--|------2--2------2--0--0--0-|------------------------|
-|-0----0----0--0--0--0--|------0--0------0--2--2--2-|------------------------|
-|-----------------------|---------------------------|------------------------|

Rhy Fig 3

from both sides of a friend
-|------------------------3-|-------3--3--3----3--3--3--3-|-------------------|
-|-3------3------0--0--x--3-|-------3--3--3----3--3--3--3-|-------------------|
-|-0------0------0--0--x--0-|-------0--0--0----0--0--0--0-|-------------------|
-|-x------x------2--2--x--0-|-------0--0--0----0--0--0--0-|-------------------|
-|-3------3------3--3--x--x-|-------x--x--x----x--x--x--x-|-------------------|
-|------------------------3-|-------3--3--3----3--3--3--3-|-------------------|

nothin'
-|-0----0-------------3-|---------3-------3--3--1--1-|------------------------|
-|-1----1----0--0--0--3-|---------3-------3--3--1--1-|------------------------|
-|-2----2----0--0--0--0-|---------0-------0--0--2--2-|------------------------|
-|-2----2----0--0--0--0-|---------0-------0--0--3--3-|------------------------|
-|-0----0-------------x-|---------x-------x--x--3--3-|------------------------|
-|--------------------3-|---------3-------3--3--1--1-|------------------------|


I'll do this one myself

-|-1-------1-------1--1--x--3-|-------3--2------2--2--2--2-|------------------|
-|-1-------1-------1--1--x--3-|-------3--3------3--3--3--3-|------------------|
-|-2-------2-------2--2--x--2-|-------2--2------2--2--2--2-|------------------|
-|-3-------3-------3--3--x--0-|-------0--0------0--0--0--0-|------------------|
-|-3-------3-------3--3--x----|----------------------------|------------------|
-|-1-------1-------1--1--x----|----------------------------|------------------|

End Rhy Fig 3

Interlude


-|------------------------|
-|------------------------|
-|-x----------------------|
-|-x----------------------|
-|-x----------------------|
-|---------------------0--|
Pick slide


Myself.............
-|---------------------5----|------------------------|------------------------|
-|-------6-------------5----|------------------------|------------------------|
-|-5-----5----------------5-|------------------------|------------------------|
-|-7-----7----------------7-|-----7--------\---------|------------------------|
-|-8-----8------------------|-----7--------\---------|------------------------|
-|-5-----5-----5--5---------|-----5--------\---------|------------------------|
-Harm.-
w/ fills 1 and 1A


Myself...............
-|-x----5-------------------5-|------------\---------|------------------------|
-|---------6-------------x--5-|------------\---------|------------------------|
-|-----------------------x--5-|------------\---------|------------------------|
-|---------7-------------x--7-|------------\---------|------------------------|
-|---------8-------------x--0-|------------\---------|------------------------|
-|---------------0--0---------|----------------------|------------------------|

-|-----3/8\5----3\-----|-------1-----------|--------------------|--|
-|-----3/8\5-----------|-x-x\x\1-------x\--|--------------------|--|
-|---------------------|-x-x\x\2-------x\--|------------------0-|--|
-|--0------------------|-------3-------x\--|------------------0-|--|
-|---------------------|-------------------|-0------------------|--|
-|---------------------|-------------------|---0----------------|--|
Fill 1 Fill 1A ----------------------------------| w/ wah and Rotovibe


-|-5----5-----/7----------|-----------------------|---------------------------|
-|-6----6--------x--x-x---|-----------------------|---------------------------|
-|-5----5--------x--x-x-0-|-----------------------|---------------------------|
-|-7----7---------------0-|----7----7/21-----17\--|---------------------------|
-|-8----8---------------0-|----0----0-------------|---------------------------|
-|-5----5-----------------|-----------------------|---------------------------|


-|------5--5----5--5--5----|----------------------|---------------------------|
-|------6--6----6--6--6--5-|----------------------|---------------------------|
-|------5--5----5--5--5--5-|-------------------x--|---------------------------|
-|------7--7----7--7--7--5-|-------------------x--|---------------------------|
-|------8--8----8--8--8--7-|-------------------x--|---------------------------|
-|------5--5----5--5--5--5-|-------------7\-------|---------------------------|

SOLO 1 (Mike)


-|-5------5---------------5-|-----------5---------5----------|-----------------|
-|-6------6---------------5-|-----------5---------5----------|-----------------|
-|-5------5------0--0--x--5-|-----------5---------5--0--0----|-----------------|
-|-7------7------0--0--x--7-|-----------7---------7--0--0----|-----------------|
-|-8------8---------------7-|-----------7---------7--------8-|-----------------|
-|-5------5---------------5-|-----------5---------5----------|-----------------|
Stone Rhy Fig 4 ---------------------------------------------------------------| 6x

-|-3h5--5--5---5--3-----------|-------------------------0-|-------------------|
-|------------------5--5vvvvv-|-vvvvvvv-5vvvvv-5--3--1--0-|-------------------|
-|----------------------------|---------------------------|-------------------|
-|----------------------------|---------------------------|-------------------|
-|----------------------------|---------------------------|-------------------|
-|----------------------------|---------------------------|-------------------|
Mike

-|-3--5--5--5--5--3----------|-------------------------0-|--------------------|
-|------------------5--5vvvv-|-vvvvvvv-5vvvvv-5--3--1--0-|--------------------|
-|---------------------------|---------------------------|--------------------|
-|---------------------------|---------------------------|--------------------|
-|---------------------------|---------------------------|--------------------|
-|---------------------------|---------------------------|--------------------|


-|-3--5--5--5--5--3---------|------------------------------|------------------|
-|------------------5--5vvv-|-vvvvvvvvv-5vvvvvv-5--3--1--1-|------------------|
-|--------------------------|------------------------------|------------------|
-|--------------------------|------------------------------|------------------|
-|--------------------------|------------------------------|------------------|
-|--------------------------|------------------------------|------------------|


-|--------------------------|-------------------------------|-----------------|
-|-1------1--1------1--1--0-|-0--1------------------1--0--0-|-----------------|
-|--------------------------|-------------------------------|-----------------|
-|--------------------------|-------------------------------|-----------------|
-|--------------------------|-------------------------------|-----------------|
-|--------------------------|-------------------------------|-----------------|


-|-3h5--5------5--3---------|-------------------------|-----------------------|
-|------------------5--5vvv-|-vvvvvvv-5vvvv-5--3--1p0-|-----------------------|
-|--------------------------|-------------------------|-----------------------|
-|--------------------------|-------------------------|-----------------------|
-|--------------------------|-------------------------|-----------------------|
-|--------------------------|-------------------------|-----------------------|


-|-3--5--5--5--5--3----------|-------------------------------|----------------|
-|------------------5--5vvvv-|-vvvvvvv-5vvvv--------3----1p0-|----------------|
-|---------------------------|-------------------------------|----------------|
-|---------------------------|-------------------------------|----------------|
-|---------------------------|-------------------------------|----------------|
-|---------------------------|-------------------------------|----------------|


-|-3--5--5--5--5--3----------|-------------------------|----------------------|
-|-------------------5--5vvv-|-vvvvvv-5vvvv-5--3--1--1-|----------------------|
-|---------------------------|-------------------------|----------------------|
-|---------------------------|-------------------------|----------------------|
-|---------------------------|-------------------------|----------------------|
-|---------------------------|-------------------------|----------------------|


-|-----------------------------|---------------------------------|------------|
-|-1------1--1---1---1---1---0-|------1--1------1--------------x-|------------|
-|-----------------------------|-------------------------------x-|------------|
-|-----------------------------|-------------------------0-----x-|------------|
-|-----------------------------|---------------------------------|------------|
-|-----------------------------|---------------------------------|------------|


Chorus 3 (Same as 2)

Outro Solo (Mike)


-|------------------------|-------------------|--------------------------|----|
-|------------------------|-------------------|--------------------------|----|
-|-9b10---9vvvv9vvvv9vvv9-|-vvv9vvv9vvv9vvv9v-|-9vvvv9vv9vv9vv9vv9vv9vvv-|----|
-|------------------------|-------------------|--------------------------|----|
-|------------------------|-------------------|--------------------------|----|
-|------------------------|-------------------|--------------------------|----|
w/ Rhy Fig 2
w/ Rotovibe

-|------------------------------|-----------------------------------|---------|
-|------------------------------|-----------------------------------|---------|
-|-9vvv9vv9vvv9vvv9vvv9vvv9vvv9-|-v9vvv9vvv9vvv9vvv9vvv9vvv9vvv9vvv-|---------|
-|------------------------------|-----------------------------------|---------|
-|------------------------------|-----------------------------------|---------|
-|------------------------------|-----------------------------------|---------|


-|-----------------------------|--------------------------------|-------------|
-|-----------------------------|--------------------------------|-------------|
-|-v7vvvvvvv7vvv5vvvvv5vv5vvv5-|-0---9vv9vv9vvv9vvv9vvv9vvv9vvv-|-------------|
-|-----------------------------|--------------------------------|-------------|
-|-----------------------------|--------------------------------|-------------|
-|-----------------------------|--------------------------------|-------------|


-|-----------------------------|-------------------------------|--------------|
-|-----------------------------|-------------------------------|--------------|
-|-vv7vvvvvvv7vvv5vvvvv5vv5vv5-|-0---9vvv9b10vvvv9vv9vv9vv9vv9-|--------------|
-|-----------------------------|-------------------------------|--------------|
-|-----------------------------|-------------------------------|--------------|
-|-----------------------------|-------------------------------|--------------|
w/ Rhy Fig 3

-|-------------------------------|----------------------------|---------------|
-|-------------------------------|----------------------------|---------------|
-|-7vvvvv-7--5vvvvvvvvv5vvv5vvv5-|-5-------5-----5--5--5--7b9-|---------------|
-|-------------------------------|-----7-----7----------------|---------------|
-|-------------------------------|----------------------------|---------------|
-|-------------------------------|----------------------------|---------------|


-|----------------------------|---------------------5----------|--------------|
-|--------------------0-------|-----8b10---vvvvvvv-----8p5---5-|--------------|
-|-----7vvvvvvvvvvvvv-0--0--0-|----------------------------7---|--------------|
-|----------------------------|--------------------------------|--------------|
-|----------------------------|--------------------------------|--------------|
-|----------------------------|--------------------------------|--------------|
Rotovibe off

-|--------------------------------|-----------------------------------|-------|
-|--------------------------------|-----------------------------------|-------|
-|-7b947p5------------------------|-----------------------------------|-------|
-|------------7vvvvvvvvv-5--------|-----------------------------------|-------|
-|--------------------------7---7-|-7----6--5--3--5b6r5----3---5vvvvv-|-------|
-|--------------------------------|-----------------------------------|-------|


-|-----------------------------------|-------------------5---------|----------|
-|------------------0----0----8----8-|-8b10vvvvvvvvvv------8p5---5-|----------|
-|------------------0----0-----------|-------------------------7---|----------|
-|------------------0----0-----------|-----------------------------|----------|
-|-5vvvvvvvvvvvvvvv------------------|-----------------------------|----------|
-|-----------------------------------|-----------------------------|----------|
w/ Rhy Fig 5 (at bottom)

-|-------------------------------------|-----------------------|--------------|
-|---------------------------5---------|-8b10vvvvvvvvvv8p5---5-|--------------|
-|-7b9r7p5-------------------5---0---0-|-------------------7---|--------------|
-|---------7vvvvvvvvvvvvvvvv-----0---0-|-----------------------|--------------|
-|-------------------------------------|-----------------------|--------------|
-|-------------------------------------|-----------------------|--------------|


-|---------------------------|--------------------8----------|-----------------|
-|-------------------------8-|-8b10-----------10-----------5-|-----------------|
-|-7b9r7p5---5vvvvvvvvv-0----|----------------------*9r7-----|-----------------|
-|---------7-----------------|-------------------------------|-----------------|
-|---------------------------|-------------------------------|-----------------|
-|---------------------------|-------------------------------|-----------------|
-----hold-------------------------------------|

-|-------------------------|------8-------8-------8-----------|---------------|
-|-------------------------|-8h10----8h10----8h10----8h10vvvv-|---------------|
-|-*9r7p5---5vvvvvvvvv-----|----------------------------------|---------------|
-|--------7--------------0-|----------------------------------|---------------|
-|-------------------------|----------------------------------|---------------|
-|-------------------------|----------------------------------|---------------|


-|--------p0-----------20b23-|---------------20b22-----20b22-|----------------|
-|------10p0-----------------|-------------------------------|----------------|
-|-----------0---------------|-------------------------------|----------------|
-|---------------------------|-------------------------------|----------------|
-|---------------------------|-------------------------------|----------------|
-|---------------------------|-------------------------------|----------------|
w/ wah w/ Rhy Fig 1A 4 times

-|-r20--17--20b22r20p17----17-------|-17--17-19p17--17-----------------------|
-|----------------------20----20b22-|---20--------20--20-17-20p17--17-----17-|
-|----------------------------------|----------------------------19--19b20---|
-|----------------------------------|----------------------------------------|
-|----------------------------------|----------------------------------------|
-|----------------------------------|----------------------------------------|


-|---------------------------------------|--17----------------------|---------|
-|-20p17--17-20p17--17-20b22r20p17-20b22-|----20p17--17-------------|---------|
-|------19--------19---------------------|---------19--19---19-17vv-|---------|
-|---------------------------------------|----------------0---------|---------|
-|---------------------------------------|--------------------------|---------|
-|---------------------------------------|--------------------------|---------|


-|--------------------------|---------------------------------------|---------|
-|--------------------------|---------------------------------------|---------|
-|-vvv-17-------------------|-------17--------17--------17----------|---------|
-|--------19-17----17-19-19-|-17h19-----17h19-----17h19-------17-19-|---------|
-|--------------19----------|---------------------------------------|---------|
-|--------------------------|---------------------------------------|---------|


-|---------------|------------------------------------------------------------|
-|------x\-------|------------------------------------------------------------|
-|------x\-------|------------------------------------------------------------|
-|------x\-------|------------------------------------------------------------|
-|---------------|------------------------------------------------------------|
-|---------------|------------------------------------------------------------|
END.

-|-1------1------1---1------0-|---------0---------0--0--0--0-|-----------------|
-|-3------3------3---3------1-|---------1---------1--1--1--1-|-----------------|
-|-2------2------2---2------2-|---------2---------2--2--2--2-|-----------------|
-|-3------3------3---3------2-|---------2---------2--2--2--2-|-----------------|
-|-0------0------0---0------0-|---------0---------0--0--0--0-|-----------------|
-|----------------------------|------------------------------|-----------------|
Rhy Fig 5---------------------------------------------------------------------|
Song info
State Of Love And Trust
Pearl Jam
2001
  • Rock
  • Stage & Screen
  • Grunge
  • Soundtrack
Alternative tracks
Similar songs
Handsome And Gretel - Babes in Toyland
Over Now - Alice in Chains
Brother - Pearl Jam
La Bamba - Los Lobos

Hi! Hope you enjoy backing track experience.
If you want to help us in the development of the project, feel free to donate!