Comfortably Numb - Pink Floyd
00:00 / 00:00
Tabs and lyrics
Tunning: Standard (E A D G B e)
(When changing from an A to a G/B to a C in the chorus, do it like this;)

(Chords used)

A G/B C
e|-----0-------3----0---|
B|-----2-------3----1---|
G|-----2-------0----0---|
D|-----2-------0----2---|
A|-----0-------2----3---|
E|----------------------|

[Verse]
Bm A
Hello, Is there any body in there?
G D/F# Em Bm
Just nod if you can hear me, is there anyone at home?
Bm A
Come on, now, I hear your feeling down,
G D/F# Em Bm
well, I can ease your pain, get you on your feet again.
Bm A G D/F# Em
relax, I need some information, first, just the basic facts,
Bm
Can you show me where it hurts

[Chorus]
D A
There is no pain you are receding,
D A G/B
A distant ships smoke, on the horizon,
C G
You are only coming through in waves,
C G
Your lips move, but I can't hear what your saying,
D A
When I was a child, I had a fever,
D A G/B
my hands felt just like, two balloons,
C G
Now I've got that feeling once again,
G C
I can't explain, you would not understand,
G
This is not how I am,

A G/B C G D
I______________________ have become, comfortably numb.

[Solo 1]
e|---14vvvvvv-----12-14>15>14------------------------------------------------|
B|------------------------------15>17vvvvvvvvvv>15--15-14--------------------|
G|---------------------------------------------------------14----------------|
D|-------------------------------------------------------------14\12vvvvvv---|
A|---------------------------------------------------------------------------|
E|---------------------------------------------------------------------------|

e|--14>12--14>(15)>14----------------------------------------------------------|
B|-----------------------15>17---------15--14----------------------------------|
G|---------------------------------------------14------------------/12vvvvvv---|
D|-------------------------------------------------14\12--11--9--7-------------|
A|-----------------------------------------------------------------------------|
E|-----------------------------------------------------------------------------|

e|---------------------------------------------------------------|
B|---------------------------------------------------------------|
G|---11--------------11\9---9\7vvvvv----9>7------7---9---11>12---|
D|----------14--12----------------------------9------------------|
A|---------------------------------------------------------------|
E|---------------------------------------------------------------|

e|---15-14-12---------------------------------------------------|
B|------------15-12---------------------------------------------|
G|------------------12------------------------------------------|
D|---------------------12vvvvvvvv--10\9vvvvvvv---10\9\7vvvvv----|
A|--------------------------------------------------------------|
E|--------------------------------------------------------------|

e|-----------------------------------------------------------|
B|-----------------------------------------------------------|
G|-11>(12)vvvvvvvv--9>(11)===(11)==>9>7----------------------|
D|---------------------------------------7/9\7vvvvvvvvvvv\---|
A|-----------------------------------------------------------|
E|-----------------------------------------------------------|

[Verse]
Bm A G D/F# Em
O.K., just a little pin prick, there'll be no more (scream),
Bm
But you may feel a little sick. Can you stand up?
A G D/F# Em
I do believe it's working, good. That'll keep you going through the show,
Bm
C'mon it's time to go

[Chorus]
D A
There is no pain you are receding,
D A G/B
A distant ships smoke on the horizon,
C G
You are only coming through in waves,
C G
Your lips move, but I can't hear what your saying,
D A
When I was a child, I caught a fleeting glimpse,
D A G/B
Out of the corner of my eye,
C G
I turned to look, but it was gone,
C
I can not put my finger on it now,
G
The child is grown, the dream is gone,
A G/B C G D
and I___________________, have become comfortably numb.

[Solo]
e|---------------------------------------------------------------|
B|---------------------------------------------------------------|
G|--7--9--9>(11)vvvvvv--9>(11)>9>7---7--9--9--7-------7vvvvvvv---|
D|---------------------------------9-------------9--9------------|
A|---------------------------------------------------------------|
E|---------------------------------------------------------------|

e|-------------------------------------------10----------------------------------|
B|--------10------10--12--12>(15)>12>10--12--------------------------------------|
G|---/11------11---------------------------------------7--9--9>(10)>9>7----------|
D|-----------------------------------------------------------------------9vvvvvv-|
A|-------------------------------------------------------------------------------|
E|-------------------------------------------------------------------------------|

e|---------------------------------------------------------------------------|
B|----10>7-------7-----------------------------------------------------------|
G|-----------9-------9---7-------------------------------7-------------------|
D|--------------------------9vvvvvvvvvv--------7---7--9-----9>7---9vvvvvv----|
A|-----------------------------------------/9--------------------------------|
E|---------------------------------------------------------------------------|

e|--9--9>(10)----7-------7---------------------------|
B|-------------------10-----10>(12)vvv----10>7-------|
G|-----------------------------------------------9---|
D|---------------------------------------------------|
A|---------------------------------------------------|
E|---------------------------------------------------|

e|-------7--------------------------------------------------------|
B|--7--7---10>7---------------------------------------------------|
G|--------------9>(11)>9>7---9-7----------------------------------|
D|-------------------------9-----9-7------------------------------|
A|-----------------------------------9-8-7-5---5vvvvvvvvvvvvvv----|
E|-------------------------------------------7--------------------|

e|--------------------------7-------------------------------------------------|
B|------------------------7---10>7--------------------------------------------|
G|--7-7-7vvvvvvv---9>(11)----------9>(11)>9>7---9-7---------------------------|
D|--------------------------------------------9-----9>7-----------------------|
A|------------------------------------------------------9\7-5-7>5---5--7-7/9--|
E|----------------------------------------------------------------7-----------|

e|----------------------------7----------------------------7------------------|
B|--------------------------7---10--------7--------------7---10>7-------------|
G|-------------7---7-9>(11)--------9>(11)---7--9--9>(11)----------9>(11)>9>7--|
D|--7-7-7--9>7---9------------------------------------------------------------|
A|----------------------------------------------------------------------------|
E|----------------------------------------------------------------------------|

e|-----------------------------------------------------------------------------|
B|---------------------------7--------------7-7-7------------------7-7-7-------|
G|----9-7--------------------7--------------7-7-7------------------7-7-7-------|
D|--9-----9-7----------------7--9vvvvvvv----7-7-7--"9"vvvvvvvvvv---7-7-7--9vvv-|
A|------------9-8-7-5---5>0----------------------------------------------------|
E|--------------------7--------------------------------------------------------|

e|---------------------------------------------7------------------------|
B|--7---------------------------------------------10>7--10>(12)====>10--|
G|--7----9>(11)>9>7-----7--9--9>(11)vvvvvvvv----------------------------|
D|-----7-------------9--------------------------------------------------|
A|----------------------------------------------------------------------|
E|----------------------------------------------------------------------|

e|----------7-------------------------------------------------------|
B|--------7---10>7--------------------------------------------------|
G|-9>(11)----------9>(11)>9>7-9>7---7---------------------------7---|
D|--------------------------------9---9>7-9>7---7------------9--7---|
A|--------------------------------------------9---9-8-7-------------|
E|------------------------------------------------------10-7--------|

e|-----------------------------------------------------------------------|
B|----------7-----7>(8)>7--------------------------7-----------------7---|
G|--------7-7-----7>(8)>7-----------------7>9>7----7-----------------7---|
D|--9-7-9---7-----7>(8)>7-7vvvvvv-7>9------------9---9>7-----7-9>7>9-----|
A|--------------------------------------------------------9--------------|
E|-----------------------------------------------------------------------|

e|------------------------------------7-----17-17-17>(19)vvv--17-19-21-21>(22)vv-|
B|--------7---7---7--7------7---7--7--7------------------------------------------|
G|--9>7---7---7---7--7----7-7---7--7--7------------------------------------------|
D|------9-----7-----------------------7------------------------------------------|
A|-------------------------------------------------------------------------------|
E|-------------------------------------------------------------------------------|

e|--21>(22)vvv-21-21>(22)>21--21>(22)-21>(22)-21>(22)>21--19>21>19-19-19\---|
B|--------------------------------------------------------------------------|
G|--------------------------------------------------------------------------|
D|--------------------------------------------------------------------------|
A|--------------------------------------------------------------------------|
E|--------------------------------------------------------------------------|

e|------------------------------------------------------------------------------|
B|--17-17-17--17>(19)>17>15----17-17-17vvvvvv---15--17-17>(18)>17>15vvv---------|
G|--------------------------16-----------------------------------------16-16-16-|
D|------------------------------------------------------------------------------|
A|------------------------------------------------------------------------------|
E|------------------------------------------------------------------------------|

e|----------------------------10---------10----12-12>(13)-10-12-------12--|
B|--------------------10>(12)----10>(12)----10------------------12-12-----|
G|--14-16vvv--------------------------------------------------------------|
D|-----------14-12--------------------------------------------------------|
A|-----------------14-----------------------------------------------------|
E|------------------------------------------------------------------------|

e|-------------------------------------------------------------|
B|-12>(15)>12--12-10---------------------------------------7---|
G|-------------------9>(11)>9>0--9>7---7-9>7---------------7---|
D|-----------------------------------9-------9-7---------------|
A|-----------------------------------------------9-8-7-5-------|
E|-------------------------------------------------------------|

e|-----------------------------------7--7--7--7---7---7---7--7-7--7---7--7--|
B|---7--7--7--7--7-----7---7---7--7--7--7--7--7---7---7---7--7-7--7---7--7--|
G|---7--7--7--7--7-----7---7---7--7-----------------------------------------|
D|-------------------9---9---9----------------------------------------------|
A|--------------------------------------------------------------------------|
E|--------------------------------------------------------------------------|

e|---7-----------------------------------------------|
B|------10-------------------------------------------|
G|----------9>(11)-9--7------------------------------|
D|----------------------9-9-9-7----7-7>9-9>7-9vvvvv--|
A|---------------------------------------------------|
E|---------------------------------------------------|


***********************************

| / Slide up
|"n" Harmonic
| x Dead note
| n>(n) Bend
| n>(n)>n Bend release
| v strike note

***********************************
Tunning: Standard (E A D G B e)
----------------------------------------------------------------------------
Comfortably Numb - Pink Floyd
----------------------------------------------------------------------------

[Verse]

Hello, Is there any body in there?
G Em Bm
Just nod if you can hear me, is there anyone at home?
A
Come on, now, I hear your feeling down,
G Em Bm
well, I can ease your pain, get you on your feet again.
A G Em
relax, I need soem information, first, just the basic facts,
Bm
Can you show me where it hurts


[Chorus]

D A
There is no pain you are receding,
D A
A distant ships smoke, on the horizon,
C G
You are only coming through in waves,
C G
Your lips move, but I can't hear what your saying,
D A
When I was a child, I had a fever,
D A
my hands felt just like, two ballons,
C G
Now I've got that feeling once again,
G C
I can't explain, you would not understand,
G
This is not how I am,
A G D
and I, have become comfortably numb.


[Solo 1]

e|-----------------------10-|--14~---------x-14r------|
B|--------------------10----|----------------------15b|
G|-----------------11-------|-------------------------|
D|--------------------------|-------------------------|
A|--------------------------|-------------------------|
E|--------------------------|-------------------------|

e|--------------------------------|----------------------10-14r-----|
B|--------15--14--14--------------|--------------0----10------------|
G|-------------------14-----------|----------------11---------------|
D|----------------------14-----12-|--12~----------------------------|
A|--------------------------------|---------------------------------|
E|--------------------------------|---------------------------------|

e|-----------------------------------------|--------------------------------|
B|--15b-----15h-14-------------------------|--------------------------------|
G|------------------14---------------------|--12~---------11-----------11/9-|
D|----------------------14/-12--11--9------|------------------14--12~-------|
A|-------------------------------------12--|--------------------------------|
E|-----------------------------------------|--------------------------------|

e|--------------------------------|--------------14-15h-14--12--------------|
B|--------------------------------|------------x----------------15h-12------|
G|--9~--7-7~-----9h7---7-9-11b-11b|----------x--------------------------12--|
D|-------------------9------------|--------x--------------------------------|
A|--------------------------------|-----------------------------------------|
E|--------------------------------|-----------------------------------------|

e|-----------------------------|-------------------|
B|-----------------------------|-------------------|
G|-----------------------------|---------------9b--|
D|--12~---10/-9--9~----10h9/7--|-------------------|
A|-----------------------------|-------------------|
E|-----------------------------|-------------------|

e|--------------------------|-------------------|
B|--------------------------|-------------------|
G|-------9r-9r7----7--------|-------------------|
D|--------------------9/-7--|--7~---------------|
A|--------------------------|-------------------|
E|--------------------------|-------------------|


[Verse]

Bm A G Em
O.K., just a little pin prick, there'll be no more (scream),
Bm
But you may feel a little sick. Can you stand up?
A G Em
I do believe it's working, good. That'll keep you going throught the show,
Bm
C'mon it's time to go


[Chorus]

D A
There is no pain you are receding,
D A
A distant ships smoke on the horizon,
C G
You are only coming through in waves,
C G
Your lips move, but I can't hear what your saying,
D A
When I was a child, I caught a fleeting glimpse,
D A
Out of the corner of my eye,
C G
I turned to look, but it was gone,
C
I can not put my finger on it now,
G
The child is grown, the dream is gone,
A G D
and I, have become comfortably numb.


e|--------------------|
B|--------------------|
G|--------------7---9-|
D|--------------------|
A|--------------------|
E|--------------------|

e|-------------------------|---------------------------------|
B|-------------------------|------------------------10----10~|
G|--9b----------9r---7---7-|--9-9~-7----7b------11-----11----|
D|---------------------9---|---------9-----------------------|
A|-------------------------|---------------------------------|
E|-------------------------|---------------------------------|

e|-------------------10b----------|--------------------------------|
B|----12-12r---10-12--------------|-------------------10h7---7-----|
G|--------------------------7--9--|--9r--7-----------------9---9h7b|
D|--------------------------------|--------9~----------------------|
A|--------------------------------|--------------------------------|
E|--------------------------------|--------------------------------|

e|------------------------|----------------------7-9-|
B|------------------------|--------------------7-----|
G|----------------------7-|--------------------------|
D|--9~-----------7-7~-9---|----9h7-9-----------------|
A|-------------9----------|--------------------------|
E|------------------------|--------------------------|

e|--9b-----7----7-------------------|
B|-----------10---10b12~-----10h7---|
G|--------------------------------9-|
D|----------------------------------|
A|----------------------------------|
E|----------------------------------|

e|------7-------------------------------------|
B|----7---10h7--------------------------------|
G|--9b---------9-9r7---9-7--------------------|
D|-------------------9-----9-7----------------|
A|-----------------------------9-8-7/5---5~---|
E|-------------------------------------7------|

e|--------------------7---------------|------------------------------------|
B|------------------7---10h7----------|------------------------------------|
G|--7-7-7~-----x-9b----------9-9r-7---|--9-7b------------------------------|
D|----------------------------------9-|------9h7---------------------7-7-7~|
A|------------------------------------|----------9-7-5-7h5---5~-7--9-------|
E|------------------------------------|--------------------7---------------|

e|------------------7---------------|
B|----------------7---10---7--------|
G|--------7b--7-9b-------9b--7~-9h0-|
D|----9h7---9-----------------------|
A|----------------------------------|
E|----------------------------------|

e|------7---------------------------------------|-----------------------|
B|----7---10h7-------------------------------7--|--------------------7b-|
G|--9b---------9-9r7---9-7b------------------7--|----------------7-7-7b-|
D|-------------------9-----9-7---------------7--|--9~------------9-7-7b-|
A|-----------------------------9-8-7-5---5h0----|-----------------------|
E|-------------------------------------7--------|-----------------------|

e|--------------------------------|----------------7----7---------|
B|---------x-7-7b----7------------|------------------10-7-10r-----|
G|---------x-7-7b----7---9r---7---|--7-9-9b11~--------------------|
D|--21~----x-7-7b-9----x--------9-|-------------------------------|
A|--------------------------------|-------------------------------|
E|--------------------------------|-------------------------------|

e|------7-------------------------------------------|
B|----7---10h7--------------------------------------|
G|--9b---------9-9r-7-9h7---7-----------------------|
D|------------------------9---9h7-9h7---7-----------|
A|------------------------------------9---9-8-7/5---|
E|------------------------------------------------7-|

e|-----------------------------|----------------------------------|
B|------------------7------7r--|-------------------------7b-------|
G|-----7------------7----x-7r--|----------7h9h0-9~-9h7---7b-------|
D|--9~-7----9-9-9-9-7----x-7r--|--7~----9--------------9----9h7---|
A|-----------------------------|--------------------------------9-|
E|-----------------------------|----------------------------------|

e|----------------------------------------|
B|-----------7b----------------7b---------|
G|-----9h7---7b----------------7b-9h7-9-x-|
D|--7~-9h7h9----9h7---7~-9h7--------------|
A|------------------9--------9------------|
E|----------------------------------------|

e|---------------------------7-7-7------|----------19--21--21b---21b--21-|
B|----7---7---7-x---7--x-7-7-7-7-7-10h0-|--22b---------------------------|
G|----7-x-7-x-7-x---7--x-7-7-7-7-7------|--------------------------------|
D|----7-x---x-----9----------7-7-7------|--------------------------------|
A|--9-----------------------------------|--------------------------------|
E|--------------------------------------|--------------------------------|

e|--21r---22~---21r-19h21h19~--------------|
B|------------------------------x-17-17-17-|
G|-----------------------------------------|
D|-----------------------------------------|
A|-----------------------------------------|
E|-----------------------------------------|

e|------------------------------------|
B|--17~---17r---15----17~-----15b-17--|
G|-----------------16-----------------|
D|------------------------------------|
A|------------------------------------|
E|------------------------------------|

e|--------------------------------------|
B|--17r--15-----------------------------|
G|----------16-16~------14-16-----------|
D|----------------------------14~-12b---|
A|-----------------------------------14-|
E|--------------------------------------|

e|--------------------------------------0----|
B|--------15-----15----17-17r-15-17-------12r|
G|--16~------16-----16--------------16~------|
D|-------------------------------------------|
A|-------------------------------------------|
E|-------------------------------------------|

e|-------------------------------------------|
B|----12-10------------------------------7-7-|
G|----------9h0-9h7---7-9h7------------x-7-7-|
D|------------------9-------9h7--------x-----|
A|------------------------------8-7-5~-------|
E|-------------------------------------------|

e|--------------------------------7-x-7-|
B|----7bx-x---7bx---7----7---7~-x-7-x-7-|
G|----7bx-x---7bx---7h-9-7---7~-x-------|
D|--9-------9-----9--------9------------|
A|--------------------------------------|
E|--------------------------------------|

e|--7-7-x-7-7--7-x-7-x-7-x-7-x-7-7--------|---------------------||
B|--7-7-x-7-7--7-x-7-x-7-x-7-x-7-7-10-----|---------------------||
G|------------------------------------9b9-|--7------------------||
D|----------------------------------------|----9-9~-------------||
A|----------------------------------------|---------------------||
E|----------------------------------------|---------------------||



************************************

| h Hammer-on
| r Release
| b Bend
| / Slide up
| ~ Vibrato
| + harmonic
| x Mute note

************************************
Tunning: Standard (E A D G B e)
Transcribed by www.mikesguitarsite.co.uk

Words & Music by Dave Gilmour & Roger Waters

Bm x 2 4 4 3 2
A x 0 2 2 2 0
G 3 2 0 0 3 3
Em 0 2 2 0 0 0

D/F# 2 x 0 2 3 x
C x 3 2 0 1 0
Asus4 x 0 2 2 3 0
Asus2 x 0 2 2 0 0

G/B x 2 0 0 3 3
Cadd9 x 3 2 0 3 0
D x x 0 2 3 2



Gtr I (E A D G B E) - 'Dave Gilmour - Clean electric
- with volume pedal, slide and ping pong echo c.715ms'

Gtr II (E A D G B E) - 'String Section arr. for gtr'

Gtr III (E A D G B E) - 'Dave Gilmour - High Strung Acoustic Guitar'
High Strung Acoustic - low E string replaced with high E string
(therefore tuned 2 octaves higher than standard) A, D, G strings
replaced with thin strings tuned one octave higher than standard

Gtr IV (E A D G B E) - 'Dave Gilmour - Lead - Dist electric'
Gtr V (E A D G B E) - 'Dave Gilmour - Rhythm - Dist Electric'



Intro Verse 1
Q=65
4/4
Gtr I
H Q E. S +H H Q a Q H
|--------------|-------------||-7s=5---------|
|------------4-|-(4)s===7----||--------------|
|------------4-|-(4)s===7----||--------------|
|--------------|-------------||--------------|
|--------------|-------------||--------------|
|--------------|-------------||--------------|
|
| Gtr II
| W W W
|-2------------|--2----------||-2------------|
|-3------------|--3----------||-3------------|
|-4------------|--4----------||-4------------|
|-4------------|--4----------||-4------------|
|-2------------|--2----------||-2------------|
|--------------|-------------||--------------|
|-Rhy Fig A

Q a Q H Q a Q H Q a Q H
|-9s=7---------|-7s=5----------|-7s=5---------|
|--------------|---------------|-7s=5---------|
|--------------|---------------|--------------|
|--------------|---------------|--------------|
|--------------|---------------|--------------|
|--------------|---------------|--------------|
|
| W Q. E H W
|-0------------|-3--------0----|-2------------|
|-2------------|-3--------0----|-3------------|
|-2------------|-0--------0----|-4------------|
|-2------------|-0--------2----|-4------------|
|-0------------|-2--------2----|-2------------|
|--------------|-3------2-0----|--------------|
end Rhy Fig A-|

w/Rhy Fig A
Q a Q H Q a Q H Q a Q H Q a Q H
||--7s=5---------|-9s=7---------|-7s=5----------|-7s=5----------||
||o-7s=5---------|--------------|---------------|-7s=5---------o||
||---------------|--------------|---------------|---------------||
||---------------|--------------|---------------|---------------||
||o--------------|--------------|---------------|--------------o||
||---------------|--------------|---------------|---------------||



Bridge
$
Gtr III
|-Rhy Fig 1 (Rhythm Slashes)
D
E. S S S S S E S S E S S
| | | | | | | | | | | |
/ / / / / / / / / / / /

Gtr II
S S S S S S S S S S S S S S S S
|-5--------5-------5-------5-------|
|----7p5-----7p5-----7p5-----7p5---|
|--------7-------7-------7-------7-|
|----------------------------------|
|----------------------------------|
|----------------------------------|
|-Orch Fig 1

A D
E S S S S S S E S S S S S S E S S S S S S E S S S S S S
| | | | | | | | | | | | | | | | | | | | | | | | | | | |
/ / / / / / / / / / / / / / / / / / / / / / / / / / / /

S S S S S S S S S S S S S S S S S S S S S S S S S S S S S S S S
|-5-------5-------5-------5-------|-5-------5-------5-------5-------|
|---5-------5-------5-------5-----|---7p5-----7p5-----7p5-----7p5---|
|-----7p6-----7p6-----7p6-----7p6-|-------7-------7-------7-------7-|
|---------------------------------|---------------------------------|
|---------------------------------|---------------------------------|
|---------------------------------|---------------------------------|


A G/B
Q E S S E S S S S S S
| | | | | | | | | | |
/ / / / / / / / / / /

S S S S S S S S S S S S S S S S
|-0-------0-------0-------0-------|
|---2p0-----2p0-----2p0-----2p0---|
|-------2-------2-------2-------2-|
|---------------------------------|
|---------------------------------|
|---------------------------------|


C G G/B
Q E S S E S S E S S E S S S S S S S S S S S S S S
| | | | | | | | | | | | | | | | | | | | | | | | |
/ / / / / / / / / / / / / / / / / / / / / / / / /

S S S S S S S S S S S S S S S S S S S S S S S S S S S S S S S S
|-3-------3-------3-------3-------|-3-------3-------3-------------3-|
|---5p3-----5p3-----5p3-----5p3---|---3-------3-------3---------3---|
|-------5-------5-------5-------5-|-----5p4-----5p4-----5p4---4-----|
|---------------------------------|-------------------------5-------|
|---------------------------------|---------------------------------|
|---------------------------------|---------------------------------|


C G end Orch Fig 1-|
E S S E S S E S S E S S E S S S S S S E S S S S S S
| | | | | | | | | | | | | | | | | | | | | | | | | |
/ / / / / / / / / / / / / / / / / / / / / / / / / /

S S S S S S S S S S S S S S S S S S S S S S S S S S S S S S S S
|-3-------3-------3-------3-------|-3-------3-------3---------------|
|---5p3-----5p3-----5p3-----5p3---|---3-------3-------3---------3-5-|
|-------5-------5-------5-------5-|-----5p4-----5p4-----5p4---4-----|
|---------------------------------|-------------------------5-------|
|---------------------------------|---------------------------------|
|---------------------------------|---------------------------------|
end Rhy Fig 1-|

w/Orch Fig 1
D
E E E S S E S S E S S
| | | | | | | | | | |
/ / / / / / / / / / /
|---------------------------------|


A D
E S S S S S S S S S S S S S S E E E S S S S S S E S S
| | | | | | | | | | | | | | | | | | | | | | | | | | |
/ / / / / / / / / / / / / / / / / / / / / / / / / / /
|---------------------------------|---------------------------------|


A G/B
E S S S S S S E S S S E.
| | | | | | | | | | | |
/ / / / / / / / / / / /
|---------------------------------|


C G
E S S E S S E S S S S S S E S S E S S E S S E S S
| | | | | | | | | | | | | | | | | | | | | | | | |
/ / / / / / / / / / / / / / / / / / / / / / / / /
|---------------------------------|---------------------------------|


C G
E S S S S S S E S S E S S E E E S S E. S E S S
| | | | | | | | | | | | | | | | | | | | | | |
/ / / / / / / / / / / / / / / / / / / / / / /
|---------------------------------|----------------------------------||


Chorus

|-Rhy Fig 2
AsusAsus2 A G/B Cadd9 G To Coda
E E E S S E S S S E. E S S E S S E S S E S S
| | | | | | | | | | | | | | | | | | | | | |
/ / / / / / / / / / / / / / / / / / / / / /
|----------------------|-------------------------|


Bridge - Guitar Solo
Gtr III
D end Rhy Fig 2-|
E S S S S S S S S S S S S S S |-w/Rhy Fig 1
| | | | | | | | | | | | | | |
/ / / / / / / / / / / / / / /

Gtr IV
~~~~~~~~~~~~~~
|--3--|
H Q E. T T T Q +Q +E S S +S +E S
|------------------------------------10-||-14----(14)-------(14)-x-14b15==(14)r(14)----------|
|---------------------------------10----||--------------------------------------------15b17==|
|------------------------------11-------||---------------------------------------------------|
|---------------------------------------||---------------------------------------------------|
|---------------------------------------||---------------------------------------------------|
|---------------------------------------||---------------------------------------------------|



~~~~~~~~~~~~~ ~~
|-------3-------|
+Q +S +S e e S. T E +E. S
|--------------------------------------------------------|
|-(15)-----(15)r(15)---15---14---14----------------------|
|------------------------------------14------------------|
|---------------------------------------14---(14)s====12-|
|--------------------------------------------------------|
|--------------------------------------------------------|



~~~~~~~~~~~~~~~~~~~
|--3--| |-------3--------|
H +E S T T T E +E +E
|-------------------------------10-14b15====(14)r==(14)---|
|---------------------(0)----10---------------------------|
|-------------------------11------------------------------|
|-12-------------(12)-------------------------------------|
|---------------------------------------------------------|
|---------------------------------------------------------|


|----3----| |---3---| |-----3-----|
Q +E E E E E E E a E E
|-------------------------------------------------------|
|-15b17===(15)r-15p==14---------------------------------|
|-------------------------14----------------------------|
|----------------------------14s==12---11---11s9--------|
|--------------------------------------------------12---|
|-------------------------------------------------------|


~~~~~~~~~~~~ ~~
|---3----|
a Q +Q +E E E E S T T
|-----------------------------------------|
|-----------------------------------------|
|-9s12--(12)-----(12)-11-------------11s9-|
|--------------------------14---12--------|
|-----------------------------------------|
|-----------------------------------------|


~~~~~~~ ~~~~~~~~~~~~
E +S S Q +E T T T T S S S S
|----------------------------------------------|
|----------------------------------------------|
|-9-(9)s7-7-------(7)---9p7---7-9-11b11.5---11-|
|---------------------------9------------------|
|----------------------------------------------|
|----------------------------------------------|


~~ ~~~~~~~~~~
|-3--| |---3---| |---3---|
+Q +E S T T T E E E E E E Q E E Q +S T T E
|--------------------------14-15p14---12----------------|------------------------------------||
|------------------------x-----------------15p12--------|------------------------------------||
|-(11)b12======(11)r---x---------------------------12---|------------------------------------||
|--------------------x----------------------------------|-12-----10s==9---9-----(9)-10p9s7---||
|-------------------------------------------------------|------------------------------------||
|-------------------------------------------------------|------------------------------------||


Chorus
w/Rhy Fig 2
~~~ ~~~
|---3----|
+H Q S E. +Q +S E +T +T Q +E a E E
|---------------------------|----------------------------------------------------|
|---------------------------|----------------------------------------------------|
|---------------------9b12==|=(9)-----(9)r-9b11r==(9)b11r(9)p7-----(7)-----------|
|-(7)-----------------------|------------------------------------------7s9s==7---|
|---------------------------|----------------------------------------------------|
|---------------------------|----------------------------------------------------|


~~~~~~~~~~~~~~~~~~
H +Q. +E
|--------------------------------------||
|--------------------------------------||
|--------------------------------------||
|-7-------------(7)-----------(7)\-----||
|--------------------------------------||
|--------------------------------------||


Verse 2
Gtr III
|-Rhy Fig 3
Bm A
S E S S S S S S S S S S S S S E S S S S S S S S S S S S S S
| | | | | | | | | | | | | | | | | | | | | | | | | | | | | |
/ / / / / / / / / / / / / / / / / / / / / / / / / / / / / /
|-------------------------------|-------------------------------|


G D/F# Em
S S S S +S S S +S S S S S +S S S S
| | | | | | | | | | | | | | | |
/ / / / / / / / / / / / / / / /
|--------------------------------------|


Bm end Rhy Fig 3-|
E S S E S S S S S S +S S S S
| | | | | | | | | | | | | |
/ / / / / / / / / / / / / /
|------------------------------|


A
E E S S S S E S S S S S S S S S S S S E E S S +S S S S
| | | | | | | | | | | | | | | | | | | | | | | | | | |
/ / / / / / / / / / / / / / / / / / / / / / / / / / /
|---------------------------|------------------------------|



G F#Em Bm
E S S +S S E S S S S +S S E E S S +S S S S +S S S S +S S e
| | | | | | | | | | | | | | | | | | | | | | | | | | |
/ / / / / o / / / / / / / / / / / / / / / / / / / / / D.S. al Coda
|-----------------------------|--------------------------------||


&
D
Gtr III
E S S S S S S S S S S S S S S E S S S S S S S S S S S S S S
| | | | | | | | | | | | | | | | | | | | | | | | | | | | | |
/ / / / / / / / / / / / / / / / / / / / / / / / / / / / / /

Gtr IV
~~~
W H Q E. S
|-------------------------------|----------------------------------||
|-------------------------------|----------------------------------||
|-------------------------------|------------------------[7]-----9-||
|-------------------------------|----------------------------------||
|-------------------------------|----------------------------------||
|-------------------------------|----------------------------------||
|
| Gtr V
| W W
|-------------------------------|----------------------------------||
|-------------------------------|----------------------------------||
|-------------------------------|----------------------------------||
|-------------------------------|----------------------------------||
|-------------------------------|-12-------------------------------||
|-------------------------------|-10-------------------------------||


Outro - Guitar Solo
w/Rhy Fig 3 to fade

~~~~~~~~~~
Q. +E +E. S +E +T T T T
|-----------------------------------------------------|
|-----------------------------------------------------|
|-9b11==========(9)---(9)r-----9b11==(9)r==(9)p7---7--|
|------------------------------------------------9----|
|-----------------------------------------------------|
|-----------------------------------------------------|
|
| W
|-----------------------------------------------------|
|-----------------------------------------------------|
|-----------------------------------------------------|
|-----------------------------------------------------|
|-9---------------------------------------------------|
|-7---------------------------------------------------|



Gtr IV
~ ~~~
|---3---|
S E T T +S S E Q E S S S
|--------------------------------------------------|
|---------------------------------------10------10-|
|-9-9---7-------7b7.5-------------/11------11------|
|---------9-(9)------------------------------------|
|--------------------------------------------------|
|--------------------------------------------------|
|
| Gtr V
| W
|--------------------------------------------------|
|--------------------------------------------------|
|--------------------------------------------------|
|--------------------------------------------------|
|-7------------------------------------------------|
|-5------------------------------------------------|



~~~~~~
|-----3------| |---3---|
+E S S +Q +S S S s E E e e
|--------------------------------------10b10.5--------------------|
|-(10)---12-12b15==(12)r====(12)p10-12----------------------------|
|-------------------------------------------------------7---9-----|
|-----------------------------------------------------------------|
|-----------------------------------------------------------------|
|-----------------------------------------------------------------|
|
| Q. E H
|-----------------------------------------------------------------|
|-----------------------------------------------------------------|
|-----------------------------------------------------------------|
|-----------------------------------------------------------------|
|---5--------------------------------2----------------------------|
|---3---------------------2----------0----------------------------|



~~~~~~~~
|--3---| |--3--|
T +T +T T E +H S S S S S S
|-----------------------------------------------------------|
|-------------------------------------10p7------7-----------|
|-9b11==(9)r(9)p7-----------------------------9---9p==7b7.5-|
|-----------------9---(9)-----------------------------------|
|-----------------------------------------------------------|
|-----------------------------------------------------------|
|
| H. S S S S
|-----------------------------------------------------------|
|-----------------------------------------------------------|
|-----------------------------------------------------------|
|-----------------------------------------------------------|
|-9------------------------------------9---12-------9-------|
|-7------------------------------------7---10-------7-------|


~ ~
H +E S S E s S
|------------------------------------|
|------------------------------------|
|---------------------------------7--|
|-9-------------(9)\------7-7---9----|
|----------------------/9------------|
|------------------------------------|
|
| W
|------------------------------------|
|------------------------------------|
|------------------------------------|
|------------------------------------|
|-9----------------------------------|
|-7----------------------------------|



~~~~~
|--3--|
+E T T S +H +E a S S Q +E T T T T +Q. S S S
|--------------------------------7-9-|-9b10=====(9)r---7----7--------------------------------|
|------------------------------7-----|-------------------10---10b12==(10)r----------10p7-----|
|-(7)--------------------------------|-----------------------------------------------------9-|
|-----9-7-9-(9)----------(9)---------|-------------------------------------------------------|
|------------------------------------|-------------------------------------------------------|
|------------------------------------|-------------------------------------------------------|
|
| W Q. E H
|------------------------------------|-------------------------------------------------------|
|------------------------------------|-------------------------------------------------------|
|------------------------------------|-------------------------------------------------------|
|------------------------------------|-------------------------------------------------------|
|--7---------------------------------|-5-------------------------------2---------------------|
|--5---------------------------------|-3---------------2---------------0---------------------|



~~
|--3---| |--3--| |----3-----| |--3--| |--3--| |--3--|
S S S S S S T +T S S S S S S S S S S S Q
|--------7-----------------------------------------------------------|
|------7---10p7------------------------------------------------------|
|-9b11------------9-9b11r(9)p7---9-7---------------------------------|
|------------------------------9-------9-7---------------------------|
|------------------------------------------9---8-7s5------5----------|
|------------------------------------------------------7-------------|
|
| W
|--------------------------------------------------------------------|
|--------------------------------------------------------------------|
|--------------------------------------------------------------------|
|--------------------------------------------------------------------|
|-9------------------------------------------------------------------|
|-7------------------------------------------------------------------|



~~~~~~~~
|---3---|
S S E +Q S S +S S S T T S T +T T T
|-------------------------------------7----------------------|
|---------------------------------7-----10p7-----------------|
|-7--7-7---(7)-------x-9b11==(9)r------------9-9pb11r(9)p7---|
|----------------------------------------------------------9-|
|------------------------------------------------------------|
|------------------------------------------------------------|
|
| H. S S E
|------------------------------------------------------------|
|------------------------------------------------------------|
|------------------------------------------------------------|
|------------------------------------------------------------|
|-9--------------------------------------9---9-9-------------|
|-7--------------------------------------7---7-7-------------|



~ ~
s s T T S a S S T T S E S S a S S S S
|----------------------------------------------|
|----------------------------------------------|
|-9-7b7.5--------------------------------------|
|---------9p7---------------------------7-7-7--|
|-------------9-9s7-5-7p5---5---7---7s9--------|
|-------------------------7--------------------|
|
| W
|----------------------------------------------|
|----------------------------------------------|
|----------------------------------------------|
|----------------------------------------------|
|-7--------------------------------------------|
|-5--------------------------------------------|



~~~ ~~
+E T T S S S S S S S S S E S S
|-----------------------------7--------------------|
|---------------------------7---10------7----------|
|-----------7b7.5----7-9b11--------9b11----7---9p0-|
|-(7)---9p7--------9-------------------------------|
|--------------------------------------------------|
|--------------------------------------------------|
|
| Q. E H
|--------------------------------------------------|
|--------------------------------------------------|
|--------------------------------------------------|
|--------------------------------------------------|
|--5--------------------------2--------------------|
|--3-------------------2------0--------------------|



|--3---| |--3--| |----3-----| |----3----| |--3--| |--3--|
S S S S S S T +T S S S S S S S S S S S T S. E
|--------7---------------------------------------------------------------|
|------7---10p7------------------------------------------------------7---|
|-9b11------------9-9b11r(9)p7---9-7b7.5-----------------------------7---|
|------------------------------9-----------9-7-----------------------7---|
|----------------------------------------------9---8-7-5------5p0--------|
|----------------------------------------------------------7-------------|
|
| E. S Q H
|------------------------------------------------------------------------|
|------------------------------------------------------------------------|
|------------------------------------------------------------------------|
|------------------------------------------------------------------------|
|-9-------------9---9------------------------9---------------------------|
|-7-------------7---7------------------------7---------------------------|



~~~~~~~~~~~~~~~~~~~~~~~~~~~
H. +S T T S. +T
|---------------------------------------------|
|--------------------------------7----(7)b7.5-|
|----------------------------7-7-7----(7)b7.5-|
|-9----------------------(9)-9-7-7----(7)b7.5-|
|---------------------------------------------|
|---------------------------------------------|
|
| W
|---------------------------------------------|
|---------------------------------------------|
|---------------------------------------------|
|---------------------------------------------|
|-9-------------------------------------------|
|-7-------------------------------------------|


Q +S T T S. +T E S S E +T +T T T
|---------------------------------------------------------|
|------------x-7-7----(7)b7.5-----7-----------------------|
|------------x-7-7----(7)b7.5-----7---9b11====(9)r(9)p7---|
|-9------(9)-x-7-7----(7)b7.5-9-----x-------------------9-|
|---------------------------------------------------------|
|---------------------------------------------------------|
|
| H. Q
|---------------------------------------------------------|
|---------------------------------------------------------|
|---------------------------------------------------------|
|---------------------------------------------------------|
|-7-----------------------------------7-------------------|
|-5-----------------------------------5-------------------|



~~~~
|--3---| |--3---|
S S S +Q. S S S E +E. +S
|----------------------------7------7-------------------------|
|------------------------------10---7-10b12====(10)r====(10)--|
|-7--9---9b11==(9)r-------------------------------------------|
|-------------------------------------------------------------|
|-------------------------------------------------------------|
|-------------------------------------------------------------|
|
| Q. E H
|-------------------------------------------------------------|
|-------------------------------------------------------------|
|-------------------------------------------------------------|
|-------------------------------------------------------------|
|-5--------------------------2--------------------------------|
|-3------------------------2-0--------------------------------|




|--3---| |--3--| |----3----| |--3--| |--3--| |--3--| |--3---| |--3--|
S S S S S S S +S S S S S S S S S S S S S S S S S
|--------7----------------------------------------------------------------|
|------7---10p7-----------------------------------------------------------|
|-9b11------------9-9pb11r(9)p7-9p7-----7---------------------------------|
|-------------------------------------9---9p==7-9p7------7----------------|
|-----------------------------------------------------9-----9---8-7s5-----|
|-----------------------------------------------------------------------7-|
|
| H. +E. S
|-------------------------------------------------------------------------|
|-------------------------------------------------------------------------|
|-------------------------------------------------------------------------|
|-------------------------------------------------------------------------|
|-9-----------------------------------------------------(9)-----------9---|
|-7-----------------------------------------------------(7)-----------7---|



~ PM----|
E e E T T T T Q S S +S +S
|---------------------------------------------|
|-----7---------------7---------7b8==(7)r(7)--|
|-----7---------------7-------x-7b8==(7)r(7)--|
|-9-----------9-9-9-9-7-------x-7b8==(7)r(7)--|
|---------------------------------------------|
|---------------------------------------------|
|
| Q Q Q Q
|---------------------------------------------|
|---------------------------------------------|
|---------------------------------------------|
|---------------------------------------------|
|-9-------9-----------9-------9---------------|
|-7-------7-----------7-------7---------------|
|-Rhy Fig 4



~~~~~~~~ ~ ~
Q +S S T T S E T T S E T T S E T T S E T T S E T T S E T T T T
|---------------------------------------|-----------------------------------------------------|
|-------------------------7b7.5---------|-----------7b7.5----------------------7b7.5----------|
|----------7h9p0-9--9p7---7b7.5---------|----9-7----7b7.5----------------------7b7.5--9p7-9-x-|
|-7--(7)h9--------------9---------9p7---|-7--9p7h9----------9p7-----7---9p7-------------------|
|-------------------------------------9-|-----------------------(9)---------9-----------------|
|---------------------------------------|-----------------------------------------------------|
|
| Q Q E E Q Q E E Q Q
|---------------------------------------|-----------------------------------------------------|
|---------------------------------------|-----------------------------------------------------|
|---------------------------------------|-----------------------------------------------------|
|---------------------------------------|-----------------------------------------------------|
|-7---7----------7--7-----7-------------|-5---------5---------------2----------2--------------|
|-5---5----------5--5-----5-------------|-3---------3-------2-------0----------0--------------|




a S S T T S S. T S S +S S S S S. T S T T
|---------------------------------7----7-7---------|
|-----7---7---7--x---7-(7)-x-7-7--7----7-7-10p0----|
|-----7-7-7-x-7--x---7-(7)-x-7-7--7----7-7---------|
|-----7-x---x------9--------------7----7-7---------|
|-7s9----------------------------------------------|
|--------------------------------------------------|
|
| Q Q Q Q
|--------------------------------------------------|
|--------------------------------------------------|
|--------------------------------------------------|
|--------------------------------------------------|
|---9---------9---------9---------9----------------|
|---7---------7---------7---------7----------------|
end Rhy Fig 4-|

w/Rhy Fig 4 to fade
~~~~~ ~~~~~
|----3----|
Q E E E Q E. S
|---------------19---21---21b22-------21b22-----21-|
|-22b24--------------------------------------------|
|--------------------------------------------------|
|--------------------------------------------------|
|--------------------------------------------------|
|--------------------------------------------------|

~~~~~~~~~~~~~~~ ~~~~~~~~~~~~~
|------3------|
E +E E +E S +S T T E. +S T T S S
|-21pb22r(21)---21pb22====(21)r---21b22r(21)-19h21p19------(19)\------------|
|----------------------------------------------------------------x-17-17-17-|
|---------------------------------------------------------------------------|
|---------------------------------------------------------------------------|
|---------------------------------------------------------------------------|
|---------------------------------------------------------------------------|


~~~~~ ~~~~~~~~~~~~~
|-------3-------|
Q E +T +T T T Q +E E E
|---------------------------------------------------------------------|
|-17b19-------17b19====(17)r(17)p15----17-------(17)---15b15.5---17---|
|-----------------------------------16--------------------------------|
|---------------------------------------------------------------------|
|---------------------------------------------------------------------|
|---------------------------------------------------------------------|



~~~~~~~~~~~~~~~~
T +T +T T S S +Q +E a S S a E S S
|----------------------------------------------------------------------|
|-17b18==(17)r(17)p15--------------------------------------------------|
|---------------------16-16-(16)-----(16)-----14-16--------------------|
|-------------------------------------------x-------16s14---12b12.5----|
|-------------------------------------------------------------------14-|
|----------------------------------------------------------------------|



~~~ ~~
Q T S. +T T S S T +T S S E S S
|-------------------------------------------------------0--------|
|---------15------------15----17-17pb18r(17)-15-17--------12b15==|
|-/16--------16----(16)----16----------------------16------------|
|----------------------------------------------------------------|
|----------------------------------------------------------------|
|----------------------------------------------------------------|



~
+S. +T S S a S S T T T T T T T T S S E S T T
|------------------------------------------------------|
|-(12)r(12)-12-10----------------------------------7-7-|
|-----------------11s9p0-9p7---7-9p7-------------x-7-7-|
|----------------------------9-------9p7---------x-----|
|----------------------------------------8-7-5---------|
|------------------------------------------------------|


~
|-3-|
S S T T S S. T S S +S T T T E S s T s.
|-----------------------------------------------7-x-7------|
|---7b7.5-x-x----7b7.5---x---7-(7)---7---7----x-7-x-7------|
|---7b7.5-x-x----7b7.5---x---7-(7)h9-7---7----x------------|
|-9-----------9------------9-----------9-------------------|
|----------------------------------------------------------|
|----------------------------------------------------------|



S. T S s s T T S S T T S T T S S S S S
|-7--7-x-7-7---7-x-7-x-7-x-7-x-7--7-----------|
|-7--7-x-7-7---7-x-7-x-7-x-7-x-7--7-10--------|
|--------------------------------------9b11-9-|
|---------------------------------------------|
|---------------------------------------------|
|---------------------------------------------|



~~~~~~~~
T S. E +Q H
|---------------------------------------*|
|---------------------------------------*|
|-7-------------------------------------*|
|---9----9---(9)------------------------*|
|---------------------------------------*|
|---------------------------------------*|
Song info
Comfortably Numb
Pink Floyd
2001
  • Rock
  • Arena Rock
Similar songs
Brick in the wall - Pink Floyd
Marooned - Pink Floyd
Break It Up - Foreigner

Привет! Надеемся, что вам нравиться пользоваться этим сайтом.
Если хотите помочь разработке, то можете пожертвовать нам некоторую сумму на развитие проекта.