Talk Dirty To Me - Poison
00:00 / 00:00
Tabs and lyrics
Tunning: Standard (E A D G B e)
"dave.casey"

Title: Talk Dirty To Me
Artist: Poison
Tabbed by: Dave Casey


Here ya go. A real three note power chord bonanza!!

C D F# G
|--------------------------------|---------------------------------|-------|
|--------------------------------|---------------------------------|-------|
|--5--5---7--7--11/12-12---------|---5--5---7--7--11/12-12---------|12-----|
|--5--5---7--7--11/12-12--3times-|---5--5---7--7--11/12-12--3times-|12-----|
|--3--3---5--5--9-/10-10---------|---3--3---5--5--9-/10-10---------|10-----|
|--------------------------------|---------------------------------|---rake|
12
beats

{check recording for actual timings}
G
|--------------------------------------------------------------------------|
|--------------------------------------------------------------------------|
|--10----10--x--x--x--x----10---10--x--x--x--x--x----10---10--x--x--x--x---|
|--10----10--x--x--x--x----10---10--x--x--x--x--x----10---10--x--x--x--x---|
|--12----12--x--x--x--x----12---12--x--x--x--x--x----12---12--x--x--x--x---|
|--------------------------------------------------------------------------|
1. Ya know I never, I never seen you look so good you never act the
2. Well I never, I never ever stay out late you know that I
3. Ya know I call you, I call you on the telephone I'm only hopin' that

D C
|--------------------------------------------------------------------------|
|--------------------------------------------------------------------------|
|---x------7--7--x--x--x----7--7--x---x---5--5--x--x--x----5--5--x--x--x---|
|---x------7--7--x--x--x----7--7--x---x---5--5--x--x--x----5--5--x--x--x---|
|---x------5--5--x--x--x----5--5--x---x---3--3--x--x--x----3--3--x--x--x---|
|--------------------------------------------------------------------------|
way you should, but I like it and I know you like it too - the way
hardly wait, just to see you and I know you cannot wait, wait to
you're home, so I can hear you when you say those words to me, and


|-- 1st time only --|
|----------------------------------9---------------------------------------|
|-----------------------------6-h7---6-h7----------------------------------|
|--------/--12--12------------------------6--------------------------------|
|--------/--12--12---------------------------------------------------------|
|--------/--10--10---------------------------------------------------------|
|--------------------------------------------------------------------------|
want you I gotta have you, oh yes I do {to verse 2}
see me too I gotta touch you cause baby we'll be {to chorus}
whisper so softly I gotta hear you cause baby we'll be {to chorus}


[Chorus]

|--------------------------------|-----------------------------------------|
|--------------------------------|-----------------------------------------|
|--5--5---7--7--11/12-12---------|---5--5---7--7--11/12-12-----------------|
|--5--5---7--7--11/12-12--3times-|---5--5---7--7--11/12-12--3times---------|
|--3--3---5--5--9-/10-10---------|---3--3---5--5--9-/10-10-----------------|
|--------------------------------|-----------------------------------------|
at the drive-in, in the open porch, behind the bushes, till I'm screamin'


|--------------------------------------------------------------------------|
|--------------------------------------------------------------------------|
|----------5--5---7--7---9--9---5--5---------------------------------------|
|----------5--5---7--7---9--9---5--5------7-7-7-7-7-7-7-/-13---------------|
|----------3--3---5--5---7--7---3--3------7-7-7-7-7-7-7-/-13---------------|
|-----------------------------------------5-5-5-5-5-5-5-/-11---------------|
for more, down the basement and lock the cellar door and baby


N.C.
|--------------------------------------------------------------------------|
|--------------------------------------------------------------------------|
|---------------------11/12-12-12-12-11/12-12------------------------------|
|---------------------11/12-12-12-12-11/12-12------------------------------|
|---------------------9-/10-10-10-10-9-/10-10------------------------------|
|--------------------------------------------------------------------------|
talk dirty to me {1st time back to verse 3}
talk dirty to me C.C pick up that guitar and talk to me!! {to solo}


Solo (Double stop heaven!)
|--------------|--------------|-----------------------------|--------------|
|-5-5--4--2--0-|-5-5--4--2--0-|-12-12--11--9--7--5--4--2--0-|-5-5--4--2--0-|
|-5-5--4--2--0-|-5-5--4--2--0-|-12-12--11--9--7--5--4--2--0-|-5-5--4--2--0-|
|--------------|--------------|-----------------------------|--------------|
|--------------|--------------|-----------------------------|--------------|
|--------------|--------------|-----------------------------|--------------|


|--------------|-------------------------------|----8-8---8-8---8-8---8-8--|
|-5-5--4--2--0-|-7-7--7-9-9--9-11-11--11-12-12-|----8-8---8-8---8-8---8-8--|
|-5-5--4--2--0-|-7-7--7-9-9--9-11-11--11-12-12-|-b10---b10---b10---b10-----|
|--------------|-------------------------------|---------------------------|
|--------------|-------------------------------|---------------------------|
|--------------|-------------------------------|---------------------------|


|3-2-0-----------------|-----------------------|---------------------------|
|-----3-1-0------------|-----------------------|---------------------------|
|-----------4-2-0------|4-2-0------------------|-2-2-2-4-4-4-5-5-5-6-6-6-7-|
|-----------------4-2-0|------4-2-0------------|---------------------------|
|----------------------|------------3-2-0------|---------------------------|
|----------------------|------------------3-2-0|---------------------------|

|--------------------------|-15-15-15--------------------------------------|
|--------------------------|----------15-15-15-----------------------------|
|-b14r14-12--b14r14-12--12-|-------------------12-12-12--------------------|
|--------------------------|----------------------------12-12-12-----------|
|--------------------------|-------------------------------------9-9-9-----|
|--------------------------|-----------------------------------------------|
{pre-bend and release on the 14th} cause baby we'll beClosing Chorus
{CHANGE!}
|--------------------------------|-----------------------------------------|
|--------------------------------|-----------------------------------------|
|--5--5---7--7--11/12-12---------|-5--5--7--7--11/12-12-11/12-12-11/12--10-|
|--5--5---7--7--11/12-12--3times-|-5--5--7--7--11/12-12-11/12-12-11/12--10-|
|--3--3---5--5--9-/10-10---------|-3--3--5--5--9-/10-10-9-/10-10-9-/10--8--|
|--------------------------------|-----------------------------------------|
at the drive-in, in the open porch, behind the bushes, till I'm screamin'


|--------------------------------------------------------------------------|
|--------------------------------------------------------------------------|
|----------5--5---7--7---9--9---5--5---------------------------------------|
|----------5--5---7--7---9--9---5--5------7-7-7-7-7-7-7-/-13---------------|
|----------3--3---5--5---7--7---3--3------7-7-7-7-7-7-7-/-13---------------|
|-----------------------------------------5-5-5-5-5-5-5-/-11---------------|
for more, down the basement and lock the cellar door and baby


N.C.
|----------------------------------------------------------------------------|
|----------------------------------------------------------------------------|
|---------------------12--12-12--12-9--9-9--9-5--5-5--5-7--7-7--7-/----------|
|---------------------12--12-12--12-9--9-9--9-5--5-5--5-7--7-7--7-/----------|
|---------------------10--10-10--10-7--7-7--7-3--3-3--3-5--5-5--5-/----------|
|----------------------------------------------------------------------------|
talk dirty to me e e e yeah and baby talk dirty to me

N.C.
|--------------------------------------------------------------------------|
|--------------------------------------------------------------------------|
|-12--12-12--11--10--9------------------------------11/12-12---------12----|
|-12--12-12--11--10--9--7--7-7-/-13-----------------11/12-12-3times--12----|
|-10--10-10--9---8---7--7--7-7-/-13-----------------9-/10-10---------10----|
|-----------------------5--5-5-/-11----------------------------------------|
and baby talk dirty to me


The closing solo over the last few bars is typical guitar-god wannabe wanker
stuff. Make up your own, it should be just as good. And lest you think I
am poking fun here and thumbing my nose at this song, this is the first song
I learned when I bought my Les Paul about four years ago and I still play it
every now and then. :)

casey@nevada.edu
dave.casey@realpro.uucp.netcom.com



************************************

| x Dead note
| h Hammer-on
| r Release
| b Bend
| / Slide up

************************************
Tunning: Standard (E A D G B e)
Tuning : half-step down

[Intro]
D#|-------------------------------------------------------------------------|
A#|-------------------------------------------------------------------------|
F#|--5---5--5-5--/7---7--7-7--11/12-12-12--11/12-12-12--11/12-12-12---12-12-|
C#|--5---5--5-5--/7---7--7-7--11/12-12-12--11/12-12-12--11/12-12-12---12-12-|
G#|--3---3--3-3--/5---5--5-5---9/10-10-10---9/10-10-10---9/10-10-10---10-10-|
D#|-------------------------------------------------------------------------|

D#|-------------------------------------------------------------------------|
A#|-------------------------------------------------------------------------|
F#|--5---5--5-5--/7---7--7-7--11/12-12-12--11/12-12-12--11/12-12-12---12-12-|
C#|--5---5--5-5--/7---7--7-7--11/12-12-12--11/12-12-12--11/12-12-12---12-12-|
G#|--3---3--3-3--/5---5--5-5---9/10-10-10---9/10-10-10---9/10-10-10---10-10-|
D#|-------------------------------------------------------------------------|

You know I

Pick Slide>>>>>>>>>>>>>>>>>>>>>>>>>>>>>>>>>>>>>>>>>>>
D#|-------------------------------------------------------------------------|
A#|-------------------------------------------------------------------------|
F#|-12-----------(12)-------------------------------------------------------|
C#|-12-----------(12)-X-\---------------------------------------------------|
G#|-10-----------(10)-X-\---------------------------------------------------|
D#|-------------------X-\---------------------------------------------------|

never... good

D#|--------------------------------------------------------------|
A#|--------------------------------------------------------------|
F#|-12-(12)-12-12-12-12-12-12-12---12-(12)-12-12-12-12-12-12-12--|
C#|-12-(12)-12-12-12-12-12-12-12---12-(12)-12-12-12-12-12-12-12--|
G#|-10-(10)-10-10-10-10-10-10-10---12-(10)-10-10-10-10-10-10-10--|
D#|--------------------------------------------------------------|
pm . . . . . . . . . . . . . .

should... like it

D#|-----------------------------------------------|
A#|-----------------------------------------------|
F#|-7-(7)-7-7-7-7-7-7-7-7---7-(7)-7-7-7-7-7-7-7-7-|
C#|-7-(7)-7-7-7-7-7-7-7-7---7-(7)-7-7-7-7-7-7-7-7-|
G#|-5-(5)-5-5-5-5-5-5-5-5---5-(5)-5-5-5-5-5-5-5-5-|
D#|-----------------------------------------------|
pm . . . . . . . . . . . . . . . .

know... too...

D#|-----------------------------------------------|
A#|-----------------------------------------------|
F#|-5-(5)-5-5-5-5-5-5-5-5---5-(5)-5-5-5-5-5-5-5-5-|
C#|-5-(5)-5-5-5-5-5-5-5-5---5-(5)-5-5-5-5-5-5-5-5-|
G#|-3-(3)-3-3-3-3-3-3-3-3---3-(3)-3-3-3-3-3-3-3-3-|
D#|-----------------------------------------------|
pm . . . . . . . . . . . . . . . .

you.. gotta have you Fill*

D#|------------------------------------(with-fill)-------| |-----9---------|
A#|------------------------------------------------------| |-6h7-----6h7---|
F#|-12-(12)-12-12-12-12-12-12-12---7-(7)-7-7-7-7-7-7-7-7-| |-------------6-|
C#|-12-(12)-12-12-12-12-12-12-12---7-(7)-7-7-7-7-7-7-7-7-| |---------------|
G#|-10-(10)-10-10-10-10-10-10-10---5-(5)-5-5-5-5-5-5-5-5-| |---------------|
D#|------------------------------------------------------| |---------------|

for next verse
somethin like this.. to see you...

D#|----------------------------------------------------------------------|
A#|----------------------------------------------------------------------|
F#|-12-x-12-12-x12-12-12-x-12-12-x12-12--7-x-7-7-x7-7--7-----9-7-x-5-9-7-|
C#|-12-x-12-12-x12-12-12-x-12-12-x12-12--7-x-7-7-x7-7--7-----7-7-x-7-7-7-|
G#|-10-x-10-10-x10-10-10-x-10-10-x10-10--5-x-5-5-x5-5----5-5-------------|
D#|----------------------------------------------------------------------|
. .

D#|------------------------------------------------------------------------|
A#|------------------------------------------------------------------------|
F#|-5-x--5--5-x-5--5--5-x--5--5-x-5--5-12-x-12-12-x12-12-12-x-12-12-x12-12-|
C#|-5-x--5--5-x-5--5--5-x--5--5-x-5--5-12-x-12-12-x12-12-12-x-12-12-x12-12-|
G#|-3-x--3--3-x-3--3--3-x--3--3-x-3--3-10-x-10-10-x10-10-10-x-10-10-x10-10-|
D#|------------------------------------------------------------------------|

[Chorus]

(same as intro)
D#|-------------------------------------------------------------------------||
A#|------------------------------------------------------------------------o||
F#|-5---5--5-5--/7---7--7-7--11/12-12-12--11/12-12-12--11/12-12-12---12-12--||
C#|-5---5--5-5--/7---7--7-7--11/12-12-12--11/12-12-12--11/12-12-12---12-12--||
G#|-3---3--3-3--/5---5--5-5---9/10-10-10---9/10-10-10---9/10-10-10---10-10-o||
D#|-------------------------------------------------------------------------||

Down the basement cellar door

D#|---------------------------------------------------------------------------|
A#|---------------------------------------------------------------------------|
F#|-5---5--5----7---7--7--9---9-9-9-9-9-9--5---5-5-5-5-5-5-5----------------7-|
C#|-5---5--5----7---7--7--9---9-9-9-9-9-9--5---5-5-5-5-5-5-5--7-7-7-7-7-7-7-7-|
G#|-3---3--3----5---5--5--7---7-7-7-7-7-7--3---3-3-3-3-3-3-3--7-7-7-7-7-7-7-5-|
D#|-----------------------------------------------------------5-5-5-5-5-5-5---|

Talk Dirty To Me

D#|------------------------------------------------|
A#|------------------------------------------------|
F#|-----------------11/12--12-12-12-12-11/12-12-12-|
C#|-----------------11/12--12-12-12-12-11/12-12-12-|
G#|------------------9/10--10-10-10-10--9/10-10-10-|
D#|------------------------------------------------|

D#|--------------------------|
A#|--------------------------|
F#|--------------------------|
C#|-7-7-7-7-7-7-X-\----------|
G#|-5-5-5-5-5-5-X-\----------|
D#|-------------X-\-(12)\----|

[Solo]
D#|------------------------|---------------------|-----------------------|
A#|-5--5-3-1-0--5--5-3-1-0-|12-12-10-8-7-5-3-1-0-|5--5-3-1-0--5--5-3-1-0-|
F#|-5--5-4-2-0--5--5-4-2-0-|12-12-11-9-7-5-4-2-0-|5--5-4-2-0--5--5-4-2-0-|
C#|------------------------|---------------------|-----------------------|
G#|------------------------|---------------------|-----------------------|
D#|------------------------|---------------------|-----------------------|

D#|------------------------------------8----8----8----8-----|
A#|-7-7--7-8-8--8-10-10--10-12-12-----8----8----8----8------|
F#|-7-7--7-8-8--9-11-11--11-12-12--10b--10b--10b--10b----10-|
C#|---------------------------------------------------------|
G#|---------------------------------------------------------|
D#|---------------------------------------------------------|

D#|-3p2p0------------------------------------|-------------------------|
A#|------3p2p0-------------------------------|-------------------------|
F#|-----------4p2p0-----4p2p0----------------|-------------------------|
C#|----------------4p2p0-----4p2p0-----------|-7-7-9-9-10-10-11-11-12--|
G#|-------------------------------3p2p0------|-------------------------|
D#|------------------------------------3p2p0-|-------------------------|

D#|--------------------|--15-15-15-------------------------------------|
A#|--------------------|-----------15-15-15----------------------------|
F#|-14br-12-14br-12-12-|--------------------12-12-12-------------------|
C#|--------------------|-----------------------------12-12-12----------|
G#|--------------------|--------------------------------------10-10-10-|
D#|--------------------|-----------------------------------------------|

[Chorus]
D#|-------------------------------------------------------------------------|
A#|-------------------------------------------------------------------------|
F#|-5---5--5-5--/7---7--7-7--11/12-12-12--11/12-12-12--11/12-12-12---12-12--|
C#|-5---5--5-5--/7---7--7-7--11/12-12-12--11/12-12-12--11/12-12-12---12-12--|
G#|-3---3--3-3--/5---5--5-5---9/10-10-10---9/10-10-10---9/10-10-10---10-10--|
D#|-------------------------------------------------------------------------|

D#|-------------------------------------------------------------------------|
A#|-------------------------------------------------------------------------|
F#|-5---5--5-5--/7---7--7-7--11/12-12-12--11/12-12-12--11/12-12-12---12-12--|
C#|-5---5--5-5--/7---7--7-7--11/12-12-12--11/12-12-12--11/12-12-12---12-12--|
G#|-3---3--3-3--/5---5--5-5---9/10-10-10---9/10-10-10---9/10-10-10---10-10--|
D#|-------------------------------------------------------------------------|

D#|-----------|
A#|-----------|
F#|-10-10--10-|
C#|-10-10--10-|
G#|--8--8---8-|
D#|-----------|

Down the basement cellar door

D#|---------------------------------------------------------------------------|
A#|---------------------------------------------------------------------------|
F#|-5---5--5----7---7--7--9---9-9-9-9-9-9--5---5-5-5-5-5-5-5----------------7-|
C#|-5---5--5----7---7--7--9---9-9-9-9-9-9--5---5-5-5-5-5-5-5--7-7-7-7-7-7-7-7-|
G#|-3---3--3----5---5--5--7---7-7-7-7-7-7--3---3-3-3-3-3-3-3--7-7-7-7-7-7-7-5-|
D#|-----------------------------------------------------------5-5-5-5-5-5-5---|

Talk Dirty To Me

D#|--------------------------15------15--------12--|
A#|-----------------------15------------15---x-15b-|
F#|------------------17b--------17b----------------|
C#|------------------------------------------------|
G#|------------------------------------------------|
D#|------------------------------------------------|

Talk Dirty To Me

D#|----------------19b----19--17--15--15h17p15-----|
A#|-------------------------------------------17---|
F#|------------------------------------------------|
C#|------------------------------------------------|
G#|------------------------------------------------|
D#|------------------------------------------------|

And Ba - bay talk dirty to me

D#|---------------------|--------------------------|
A#|---------------------|--------------------------|
F#|----5-5-5-5-5-5-5-5--|-7------------------------|
C#|----5-5-5-5-5-5-5-5--|-7------------------------|
G#|----3-3-3-3-3-3-3-3--|-5------------------------|
D#|---------------------|--------------------------|

uh

D#|------------------------------------------------|
A#|------------------------------------------------|
F#|-11/12-12-12--11/12-12-12--11/12-12-12----------|
C#|-11/12-12-12--11/12-12-12--11/12-12-12----------|
G#|--9/10-10-10---9/10-10-10---9/10-10-10----------|
D#|------------------------------------------------|

D#|------------------------------------------------|
A#|------------------------------------------------|
F#|-11/12-12-12--11/12-12-12--11/12-12-12----------|
C#|-11/12-12-12--11/12-12-12--11/12-12-12----------|
G#|--9/10-10-10---9/10-10-10---9/10-10-10----------|
D#|------------------------------------------------|

Whammy Bar

D#|-------15-13-----15-13-----15-13-----15-13-----19b-19----/\----|
A#|--15-15-----15-15-----15-15-----15-15-----15-15-------*-/--\---|
F#|------------------------------------------------------3.2---\--|
C#|-------------------------------------------------------------\-|
G#|---------------------------------------------------------------|
D#|---------------------------------------------------------------|

[End]
D#|-----|
A#|-----|
F#|-----|
C#|--5--|
G#|--5--|
D#|--3--|

And that's pretty much it

************************************

* = slight natural harmonic
b = bend
pb = pre-bend
br = bend then release
. = Palm Mute
h = hammer-on
p = pull-off
/ = slide up
\ = slide down

************************************
Tunning: Standard (E A D G B e)
My first tab. Talk Dirty To Me, by Poison


Oppening Riff: Repeat Twice, then Pickslide.


e|---------------------------------------------------------------------------|
b|----------------------------------6/7--7--7--6/7--7--7--6/7--7--7--7-------|
g|-4--x--4--4--4--6--x--6--6--6--6--5/6--6--6--5/6--6--6--5/6--6--6--6-------|
D|-4--x--4--4--4--6--x--6--6--6--6-------------------------------------------|
A|-2--x--2--2--2--4--x--4--4--4--4-------------------------------------------|
E|---------------------------------------------------------------------------|


Verse 1: You know I never....
pm pm
e|---------------------------------------------------------------------------|
b|---------------------------------------------------------------------------|
g|---------------------------------------------------------------------------|
d|--4--------------------------4---------------------------------------------|
a|--4--------------------------4---------------------------------------------|
e|--2--2--2--2--2--2--2--2--2--2--2--2--2--2--2--2--2--2---------------------|


Verse 2: But I like it...
pm pm
e|---------------------------------------------------------------------------|
b|---------------------------------------------------------------------------|
g|--6---------------------------6--------------------------------------------|
d|--6--------------------------6---------------------------------------------|
a|--4--4--4--4--4--4--4--4--4--4--4--4--4--4--4--4--4--4---------------------|
e|---------------------------------------------------------------------------|


Verse 3: And I know you like it too...


pm pm
e|---------------------------------------------------------------------------|
b|---------------------------------------------------------------------------|
g|--4--------------------------4---------------------------------------------|
d|--4--------------------------4---------------------------------------------|
a|--2--2--2--2--2--2--2--2--2--2--2--2--2--2--2--2--2--2---------------------|
e|---------------------------------------------------------------------------|


It repeats untill the Chorus, Which repeats the riff 3X

e|---------------------------------------------------------------------------|
b|----------------------------------6/7--7--7--6/7--7--7--6/7--7--7--7-------|
g|-4--x--4--4--4--6--x--6--6--6--6--5/6--6--6--5/6--6--6--5/6--6--6--6-------|
D|-4--x--4--4--4--6--x--6--6--6--6-------------------------------------------|
A|-2--x--2--2--2--4--x--4--4--4--4-------------------------------------------|
E|---------------------------------------------------------------------------|


At the end of the Chorus, these Chords are played, followed by the riff



e|---------------------------------------------------------------------------|
b|---------------------------------------------------------------------------|
g|--8---------6-------4---------6--------------------------------------------|
d|--8---------6-------4---------6--------------------------------------------|
a|--6---------4-------2---------4--------------------------------------------|
e|---------------------------------------------------------------------------|


Then, the same notes are played as in the verses. Which leads to the solo.

Solo:

------------------------|---------------------|-----------------------|
-5--5-3-1-0--5--5-3-1-0-|12-12-10-8-7-5-3-1-0-|5--5-3-1-0--5--5-3-1-0-|
-5--5-4-2-0--5--5-4-2-0-|12-12-11-9-7-5-4-2-0-|5--5-4-2-0--5--5-4-2-0-|
------------------------|---------------------|-----------------------|
------------------------|---------------------|-----------------------|
------------------------|---------------------|-----------------------|


------------------------------------8----8----8----8-----|
-7-7--7-8-8--8-10-10--10-12-12-----8----8----8----8------|
-7-7--7-8-8--9-11-11--11-12-12--10b--10b--10b--10b----10-|
---------------------------------------------------------|
---------------------------------------------------------|
---------------------------------------------------------|


-3p2p0------------------------------------|-------------------------|
------3p2p0-------------------------------|-------------------------|
-----------4p2p0-----4p2p0----------------|-------------------------|
----------------4p2p0-----4p2p0-----------|-7-7-9-9-10-10-11-11-12--|
-------------------------------3p2p0------|-------------------------|
------------------------------------3p2p0-|-------------------------|


--------------------|--15-15-15-------------------------------------|
--------------------|-----------15-15-15----------------------------|
-14br-12-14br-12-12-|--------------------12-12-12-------------------|
--------------------|-----------------------------12-12-12----------|
--------------------|--------------------------------------10-10-10-|
--------------------|-----------------------------------------------|


Chorus riff to the End!
Song info
Talk Dirty To Me
Poison
2001
  • Rock
  • Glam
  • Hard Rock
Alternative tracks
Similar songs
Enter Sandman - Metallica
Them Bones - Alice in Chains
Hot Child In The City - Nick Gilder

Hi! Hope you enjoy backing track experience.
If you want to help us in the development of the project, feel free to donate!