Anesthetize - Porcupine Tree
00:00 / 00:00
Tabs and lyrics
Tunning: Drop C (C G C F A D)
Guitar I
Anesthetize Pt 1

[Intro/Verse]
> > > >
S S S S S S S S S S S S S S S S S S S S S S S S S S S S S S S S
D|----------------------------------|----------------------------------|
A|----------------------------------|----------------------------------|
F|----------------------------------|----------------------------------|
C|----------------------------------|--7-7-7-7-7-7-7-7-7-7-7-7-7-7-7-7-|
G|--5-5-5-5-5-5-5-5-5-5-5-5-5-5-5-5-|----------------------------------|
C|----------------------------------|----------------------------------|

> > > >
S S S S S S S S S S S S S S S S S S S S S S S S S S S S S S S S
D|----------------------------------|----------------------------------|
A|----------------------------------|----------------------------------|
F|----------------------------------|----------------------------------|
C|--5-5-5-5-5-5-5-5-5-5-5-5-5-5-5-5-|--5-5-5-5-5-5-5-5-5-5-5-5-5-5-5-5-|
G|----------------------------------|----------------------------------|
C|----------------------------------|----------------------------------|

> > > >
S S S S S S S S S S S S S S S S S S S S S S S S S S S S S S S S
D|----------------------------------|----------------------------------|
A|----------------------------------|----------------------------------|
F|----------------------------------|----------------------------------|
C|--6-6-6-6-6-6-6-6-6-6-6-6-6-6-6-6-|----------------------------------|
G|----------------------------------|--7-7-7-7-7-7-7-7-7-7-7-7-7-7-7-7-|
C|----------------------------------|----------------------------------|

> > > >
S S S S S S S S S S S S S S S S S S S S S S S S S S S S S S S S
D|----------------------------------|----------------------------------|
A|----------------------------------|----------------------------------|
F|----------------------------------|----------------------------------|
C|--5-5-5-5-5-5-5-5-5-5-5-5-5-5-5-5-|----------------------------------|
G|----------------------------------|--7-7-7-7-7-7-7-7-7-7-7-7-7-7-7-7-|
C|----------------------------------|----------------------------------|

> > > >
S S S S S S S S S S S S S S S S S S S S S S S S S S S S S S S S
D|----------------------------------|----------------------------------|
A|----------------------------------|----------------------------------|
F|----------------------------------|----------------------------------|
C|----------------------------------|--7-7-7-7-7-7-7-7-7-7-7-7-7-7-7-7-|
G|--5-5-5-5-5-5-5-5-5-5-5-5-5-5-5-5-|----------------------------------|
C|----------------------------------|----------------------------------|

> > > >
S S S S S S S S S S S S S S S S S S S S S S S S S S S S S S S S
D|-----------------------------------|-----------------------------------|
A|-----------------------------------|-----------------------------------|
F|-----------------------------------|-----------------------------------|
C|--7S-9-9-9-9-9-9-9-9-9-9-9-9-9-9-9-|--9S-5-5-5-5-5-5-5-5-5-5-5-5-5-5-5-|
G|-----------------------------------|-----------------------------------|
C|-----------------------------------|-----------------------------------|

> > > >
S S S S S S S S S S S S S S S S S S S S S S S S S S S S S S S S
D|----------------------------------|----------------------------------|
A|----------------------------------|----------------------------------|
F|----------------------------------|----------------------------------|
C|--6-6-6-6-6-6-6-6-6-6-6-6-6-6-6-6-|--6-6-6-6-6-6---------------------|
G|----------------------------------|--------------7-7-7-7-7-7-7-7-7-7-|
C|----------------------------------|----------------------------------|

> > > >
S S S S S S S S S S S S S S S S S S S S S S S S S S S S S S S S
D|----------------------------------|----------------------------------|
A|----------------------------------|----------------------------------|
F|----------------------------------|----------------------------------|
C|--5-5-5-5-5-5-5-5-5-5-5-5-5-5-5-5-|----------------------------------|
G|----------------------------------|--7-7-7-7-7-7-7-7-7-7-7-7-7-7-7-7-|
C|----------------------------------|----------------------------------|

[Chorus]
> > > > > >
S S S S S S S S S S S S S S S S S S S S S S S S S S S S S S S S
D|-----------------------------------|----------------------------------|
A|-----------------------------------|----------------------------------|
F|*----------------------------------|----------------------------------|
C|*--7-7-7-7-7-7-7-7-7-7-7-7-7-7-7-7-|--7-7-7-7-7-7-7-7-7-7-7-7-7-7-7-7-|
G|-----------------------------------|----------------------------------|
C|-----------------------------------|----------------------------------|

> > > > > >
S S S S S S S S S S S S S S S S S S S S S S S S S S S S S S S S
D|----------------------------------|----------------------------------|
A|----------------------------------|----------------------------------|
F|----------------------------------|----------------------------------|
C|--7-7-7-7-7-7-7-7-7-7-7-7-7-7-7-7-|--7-7-7-7-7-7-7-7-7-7-7-7-7-7-7-7-|
G|----------------------------------|----------------------------------|
C|----------------------------------|----------------------------------|

> > > >
S S S S S S S S S S S S S S S S S S S S S S S S S S S S S S S S
D|----------------------------------|----------------------------------|
A|--3-3-3-3-3-3-3-3-3-3-3-3-3-3-3-3-|--2-2-2-2-2-2-2-2-2-2-2-2-2-2-2-2-|
F|----------------------------------|----------------------------------|
C|----------------------------------|----------------------------------|
G|----------------------------------|----------------------------------|
C|----------------------------------|----------------------------------|

> > > >
S S S S S S S S S S S S S S S S S S S S S S S S S S S S S S S S
D|----------------------------------|-----------------------------------||
A|--3-3-3-3-3-3-3-3-3-3-3-3-3-3-3-3-|--5-5-5-5-5-5-5-5-5-5-5-5-5-5-5-5--||
F|----------------------------------|----------------------------------*||
C|----------------------------------|----------------------------------*||
G|----------------------------------|-----------------------------------||
C|----------------------------------|-----------------------------------||

Part before the Guitar Solo/during solo
> > > >
S S S S S S S S S S S S S S S S S S S S S S S S S S S S S S S S
D|----------------------------------|----------------------------------|
A|----------------------------------|----------------------------------|
F|----------------------------------|----------------------------------|
C|----------------------------------|--------------7-7-7-7-7-7-7-7-7-7-|
G|--5-5-5-5-5-5-5-5-5-5-5-5-5-5-5-5-|--5-5-5-5-5-5---------------------|
C|----------------------------------|----------------------------------|

> > > > >
S S S S S S S S S S S S S S S S S S S S S S S S S S S S S S S S
D|----------------------------------|----------------------------------|
A|----------------------------------|----------------------------------|
F|----------------------------------|----------------------------------|
C|----------------------------------|----------------------------------|
G|--7-7-7-7-7-7-7-7-7-7-7-7-7-7-7-7-|--7-7-7-7-7-7-7-7-7-7-7-7-7-7-9-9-|
C|----------------------------------|----------------------------------|

> > > >
S S S S S S S S S S S S S S S S S S S S S S S S S S S S S S S S
D|----------------------------------|----------------------------------|
A|----------------------------------|----------------------------------|
F|----------------------------------|----------------------------------|
C|----------------------------------|--------------7-7-7-7-7-7-7-7-7-7-|
G|--5-5-5-5-5-5-5-5-5-5-5-5-5-5-5-5-|--5-5-5-5-5-5---------------------|
C|----------------------------------|----------------------------------|

> > >
S S S S S S S S S S S S S S S S S S S S S S S S S S S S S S S S
D|-----------------------------------|----------------------------------|
A|-----------------------------------|----------------------------------|
F|-----------------------------------|----------------------------------|
C|--7S-9-9-9-9-9---------------------|----------------------------------|
G|---------------7-7-7-7-7-7-7-7-7-7-|--7-7-7-7-7-7-9-9-9-9-9-9-9-9-9-9-|
C|-----------------------------------|----------------------------------|

> > > >
S S S S S S S S S S S S S S S S S S S S S S S S S S S S S S S S
D|----------------------------------|----------------------------------|
A|----------------------------------|----------------------------------|
F|----------------------------------|----------------------------------|
C|----------------------------------|--------------7-7-7-7-7-7-7-7-7-7-|
G|--5-5-5-5-5-5-5-5-5-5-5-5-5-5-5-5-|--5-5-5-5-5-5---------------------|
C|----------------------------------|----------------------------------|

> > > > >
S S S S S S S S S S S S S S S S S S S S S S S S S S S S S S S S
D|----------------------------------|----------------------------------|
A|----------------------------------|----------------------------------|
F|----------------------------------|----------------------------------|
C|----------------------------------|----------------------------------|
G|--7-7-7-7-7-7-7-7-7-7-7-7-7-7-7-7-|--7-7-7-7-7-7-7-7-7-7-7-7-7-7-9-9-|
C|----------------------------------|----------------------------------|

> > > >
S S S S S S S S S S S S S S S S S S S S S S S S S S S S S S S S
D|----------------------------------|----------------------------------|
A|----------------------------------|----------------------------------|
F|----------------------------------|----------------------------------|
C|----------------------------------|--------------7-7-7-7-7-7-7-7-7-7-|
G|--5-5-5-5-5-5-5-5-5-5-5-5-5-5-5-5-|--5-5-5-5-5-5---------------------|
C|----------------------------------|----------------------------------|

He plays some variation in this part
> > >
S S S S S S S S S S S S S S S S S S S S S S S S S S S S S S S S
D|-----------------------------------|----------------------------------|
A|-----------------------------------|----------------------------------|
F|-----------------------------------|----------------------------------|
C|--7S-9-9-9-9-9---------------------|----------------------------------|
G|---------------7-7-7-7-7-7-7-7-7-7-|--7-7-7-7-7-7-9-9-9-9-9-9-9-9-9-9-|
C|-----------------------------------|----------------------------------|

Clean guitar chorus during chorus
D#, Gm, D#, Gm, Am, Esus4, G#, A#

Distortion guitar in 2nd chorus plays something like this. It's hard to hear so I'm entirely sure.
W W W
D|--------------------|-------------------|-------------------|
A|--------------------|-------------------|-------------------|
F|*--2----------------|-------------------|--2----------------|
C|*--0----------------|--L----------------|--0----------------|
G|---0----------------|--L----------------|--0----------------|
C|---0----------------|--L----------------|--0----------------|

W W W W
D|-------------------|-------------------|-------------------|-------------------|
A|-------------------|-------------------|-------------------|-------------------|
F|--L----------------|-------------------|-------------------|-------------------|
C|--L----------------|--4----------------|--L----------------|--3----------------|
G|--L----------------|--2----------------|--L----------------|--1----------------|
C|--L----------------|--0----------------|--L----------------|--0----------------|

W
D|--------------------|
A|--------------------|
F|-------------------*|
C|--5----------------*|
G|--3-----------------|
C|--0-----------------|

Distortion guitar before solo
H Q Q Q Q E E E E W
D|---------------------|------------------------|-------------------|
A|---------------------|------------------------|-------------------|
F|---------------------|------------------------|-------------------|
C|---------------------|------------------------|-------------------|
G|--0--------5----4----|--3---------------------|-------------------|
C|--0------------------|-------0----0--3--0--3--|--2----------------|

The guitar solo. Now this isn't 100% correct. The fast parts I just improvised myself,
so you can get an idea of how it's played. So DON'T play the fast parts exactly how I
them written!

H. S E S
D|---------------16b-Lb--13-|
A|--------------------------|
F|--------------------------|
C|--------------------------|
G|--------------------------|
C|--L-----------------------|

|----3---|
H Q E E E
D|--12~--------L----13-----------|
A|----------------------15p--13--|
F|-------------------------------|
C|-------------------------------|
G|-------------------------------|
C|-------------------------------|

W
D|--16~------------------------------------------------|
A|-----------------------------------------------------|
F|-----------------------------------------------------|
C|-----------------------------------------------------|
G|-----------------------------------------------------|
C|-----------------------------------------------------|

H. E S S Q Q Q Q W
D|--17~------------L--17----|--17----20----19----L~----|--L----------------|
A|-----------------------17-|--------------------------|-------------------|
F|--------------------------|--------------------------|-------------------|
C|--------------------------|--------------------------|-------------------|
G|--------------------------|--------------------------|-------------------|
C|--------------------------|--------------------------|-------------------|

|-----3-----|
H Q Q Q Q Q. Q.
D|--10g13~--------L----------13----|--15b----L~------x------|
A|---------------------15----------|------------------------|
F|---------------------------------|------------------------|
C|---------------------------------|------------------------|
G|---------------------------------|------------------------|
C|---------------------------------|------------------------|

|---3---|
E S S S S S S S S S S S S E H E. E E E S
D|--------13-----------------------------------|-------------------------14b--L-|
A|-----15----15-13-13b-L-13-13b-L-15----15-12--|--13~--------x---13--15---------|
F|-----------------------------------14--------|--------------------------------|
C|---------------------------------------------|--------------------------------|
G|---------------------------------------------|--------------------------------|
C|---------------------------------------------|--------------------------------|

|-----3-----| |-----3-----|
Q. S S Q Q Q Q Q Q H
D|--L------15-15-15----15----15----|--15----15----15----Lb--------|
A|---------------------------------|------------------------------|
F|---------------------------------|------------------------------|
C|---------------------------------|------------------------------|
G|---------------------------------|------------------------------|
C|---------------------------------|------------------------------|

|---3---| |---3--|
Q. S S S S S S S S S S S S
D|--x-----------------13---------------------------|
A|---------13h-15p-13----13h-15-13h-15-13-15-13----|
F|----------------------------------------------14-|
C|-------------------------------------------------|
G|-------------------------------------------------|
C|-------------------------------------------------|

|-------------------------3------------------------| |---3--| |--3--|
S S S S S S S S S S
D|---------------------------------------------------------------------------------|
A|-------------------------------------------------13h-15----13h-15-13b-13----12---|
F|--14----------------------------------------------------14---------------14----1-|
C|---------------------------------------------------------------------------------|
G|---------------------------------------------------------------------------------|
C|---------------------------------------------------------------------------------|

|---3--| |---3---|
S S S S S S S S S S S E E E S
D|---------------------------------------------------------------------------------|
A|------------------------------------12-15----13-15-13-12--------------------13-1-|
F|--14-----------------------------12-------14-------------14p-12-14--14--14-------|
C|---------------------------------------------------------------------------------|
G|---------------------------------------------------------------------------------|
C|---------------------------------------------------------------------------------|

|---3--| |---3--|
S S S S S S S E S S S S S S S S S
D|--------------------------------------------------------|
A|--15----------------12-15--12---------------------------|
F|-----14p-12-14---14-----------16p-14----16--------16----|
C|-------------------------------------14----14p-12----14-|
G|--------------------------------------------------------|
C|--------------------------------------------------------|

|---3--|
S S S S S S S S S Q Q
D|---------------------------------------------|
A|---------------------------------------------|
F|--13----13-----------14p-13----13~----LS~----|
C|-----14----14-12h-14--------14---------------|
G|---------------------------------------------|
C|---------------------------------------------|

|------3------|
Q Q Q Q E. S
D|---------22~----24~----22~----24~---24b~-|
A|-----------------------------------------|
F|--16~------------------------------------|
C|-----------------------------------------|
G|-----------------------------------------|
C|-----------------------------------------|

|------3------| |------3------|
Q Q Q Q E. S Q. S S Q Q Q
D|--L----22~----24~----22~----24~---24b~-|--L------22~-24~-25~----24~----25~----|
A|---------------------------------------|--------------------------------------|
F|---------------------------------------|--------------------------------------|
C|---------------------------------------|--------------------------------------|
G|---------------------------------------|--------------------------------------|
C|---------------------------------------|--------------------------------------|

|---3--|
H Q E S S E E Q E. S S S S S S
D|--26b~--------27~----L--27~-27~-|--27~--22~--22~----L----------------------|
A|--------------------------------|-----------------------12-13--------------|
F|--------------------------------|-----------------------------14p-12-------|
C|--------------------------------|------------------------------------12-14-|
G|--------------------------------|------------------------------------------|
C|--------------------------------|------------------------------------------|

|---3--| |---3--|
S S S S S S S S S S S S S S S S S S
D|------------------------------------------------------------|
A|------------------------------------------------------------|
F|--12-14-12-----------12p-10-------12p-10--------------12----|
C|-----------14p-12-14--------14-12--------14p-12----12----12-|
G|------------------------------------------------12----------|
C|------------------------------------------------------------|

|---3--| |---3--|
S S S S S S S S S S S S S S S S S S
D|-----------------------------------------------------------|
A|-----------------------------------------------------------|
F|--14-------------------------------------------------------|
C|-----14p-12----------12-14-12----------12h-14-12--------14-|
G|------------14-12-14----------14-12-14-----------14p-12----|
C|-----------------------------------------------------------|

S S S S S S S S Q. E W
D|-----------------------------------------|15b~
A|-----------------------------------------|
F|----------------------------14~-------L--|
C|--14p-12----12----14p-12-14--------------|
G|---------14----14------------------------|
C|-----------------------------------------|

The looping guitar part after this is very tricky. It's playing open Cs and muted notes
a weird time signature that comes back in time with the 4/4 stuff every 5 measures or
It can be very hard to get down if you're playing it live.

All the other stuff played during this part is a keyboard, the only guitar is the looping one!

Part II

19/8
Q E. S E Q E. S S S S S Q E. S S S S S E S S
D|-------------------------------------------------------------|
A|-------------------------------------------------------------|
F|-------------------------------------------------------------|
C|--2----1---0----2----1---0---------2----1---0----------------|
G|--2----1---0----2----1---0---------2----1---0---------5------|
C|--2----1---0----2----1---0---0---0-2----1---0---0---0----0-0-|

S S S S E S S S S E S S S S
D|--------------------------------|
A|--------------------------------|
F|--7-7-7-7----7-7-7-7----7-7-7-7-|
C|--x-x-x-x----x-x-x-x----x-x-x-x-|
G|--5-5-5-5----5-5-5-5----5-5-5-5-|
C|--------------------------------|

E S S S S E S S S S E S S S S E S S S S E S S S S E
D|-----------------------------------------|---------------------------------|
A|-----------------------------------------|---------------------------------|
F|-----10-10-10-10----10-10-10-10----10-10-|--10-10----6-6-6-6----6-6-6-6----|
C|------x--x--x--x-----x--x--x--x-----x--x-|---x--x----x-x-x-x----x-x-x-x----|
G|------8--8--8--8-----8--8--8--8-----8--8-|---8--8----4-4-4-4----4-4-4-4----|
C|-----------------------------------------|---------------------------------|

S S S S S S S S S S S S S E.
D|----------------------------------------|
A|----------------------------------------|
F|--6-6-6-6-x-6-10-15-15-15-14-14-14-14---|
C|--x-x-x-x-x-x--x--x--x--x--x--x--x--x---|
G|--4-4-4-4-x-4--8-13-13-13-12-12-12-12---|
C|----------------------------------------|

S E S S S S S E S S S S S S S E S S S S S E S S S S S S
D|--------------------------------|--------------------------------|
A|--------------------------------|--------------------------------|
F|--------------------------------|--------------------------------|
C|--------------------------------|--------------------------------|
G|--------------------------------|--------------------------------|
C|--0----0-3-0---0----0-0-3-0-0-3-|--0----0-3-0---0----0-0-3-0-0-3-|

^ Repeat in the following verses.

[Chorus]
H. S E S H. S E S
D|----------------------|----------------------|
A|----------------------|----------------------|
F|----------------------|----------------------|
C|--5-------------------|--8-------------------|
G|--5------------5-5--5-|--8------------8-8--8-|
C|--5------------5-5--5-|--8------------8-8--8-|

S S S S S S S S S S S S S S S S S S S S S S S S S S S S S S S S
D|--------------------------------------|----------------------------------|
A|--------------------------------------|----------------------------------|
F|--9-9-9-9-9-9-7-7-7-7-7-7-14-14-14-14-|--9-9-9-9-9-9-7-7-7-7-7-7---------|
C|--x-x-x-x-x-x-x-x-x-x-x-x--x--x--x--x-|--x-x-x-x-x-x-x-x-x-x-x-x-7-7-7-7-|
G|--7-7-7-7-7-7-5-5-5-5-5-5-12-12-12-12-|--7-7-7-7-7-7-5-5-5-5-5-5-x-x-x-x-|
C|--------------------------------------|--------------------------7-7-7-7-|

H. S E S H. S E S
D|----------------------|----------------------|
A|----------------------|----------------------|
F|----------------------|----------------------|
C|--5-------------------|--8-------------------|
G|--5------------5-5--5-|--8------------8-8--8-|
C|--5------------5-5--5-|--8------------8-8--8-|

^ ^ ^ ^ ^ ^ ^ ^ ^
Q E. S E Q E. S S S S S Q E. S S S S S E S S
D|-------------------------------------------------------------|
A|-------------------------------------------------------------|
F|-------------------------------------------------------------|
C|--2----1---0----2----1---0---------2----1---0----------------|
G|--2----1---0----2----1---0---------2----1---0---------5------|
C|--2----1---0----2----1---0---0---0-2----1---0---0---0----0-0-|

Go back to the verse riff, chorus again and then comes this.

Q E S E E E S E Q E S E E E S E
D|------------------------------|------------------------------|
A|------------------------------|------------------------------|
F|------------------------------|------------------------------|
C|------------------------------|--8----10--10-10--8--8--8-10--|
G|--8----10--10-10--8--8--8-10--|------------------------------|
C|------------------------------|------------------------------|

E E E S E E E S E Q E S E E E S E
D|---------------------------|--------------------------|
A|---------------------------|--------------------------|
F|---------------------------|--------------------------|
C|----------------5-----5----|--------------------------|
G|--7--8--7--0-7-----7----7--|--5----8--8-8--5--5--5-7--|
C|---------------------------|--------------------------|

Q E S E E E S E Q E S E E E S E
D|------------------------------|------------------------------|
A|------------------------------|------------------------------|
F|------------------------------|------------------------------|
C|------------------------------|--8----10--10-10--8--8--8-10--|
G|--8----10--10-10--8--8--8-10--|------------------------------|
C|------------------------------|------------------------------|

E E E S E E E S E
D|---------------------------|
A|---------------------------|
F|---------------------------|
C|----------------5-----5----|
G|--7--8--7--0-7-----7----7--|
C|---------------------------|

Guitar II during this part
Q E. E. Q. Q E Q Q. Q E Q Q.
D|----------------------|----------------------|----------------------|
A|----------------------|----------------------|----------------------|
F|----------------------|----------------------|----------------------|
C|----------------------|----------------------|----------------------|
G|--0----0---0---0------|--3-------3----3------|--8-------8----8------|
C|--0----0---0---0------|--3-------3----3------|--8-------8----8------|

Q E Q Q.
D|----------------------|
A|----------------------|
F|----------------------|
C|----------------------|
G|--7-------7----7------|
C|--7-------7----7------|

The next part is a tricky time signature. I believe it alternates between 21/16 and 23/16.
E. E. E. E. S S E. S E. E. E. E. E. S S E. S S S S S S
D|-------------------------------------|-----------------------------------------|
A|-------------------------------------|-----------------------------------------|
F|-------------------------------------|-----------------------------------------|
C|--14---14---10---10------------------|--12---12---7---7------------------------|
G|--12---12----8----8---7h-8-7---------|--10---10---5---5---7h-8-7---------------|
C|--12---12----8----8------------0-0---|--10---10---5---5------------0-0---0---0-|

The cool part with the keyboards.

Guitar I goes something like this. He adds a little variation.
Q E E Q E E Q E E Q E E Q E E Q E E
D|------------------------|------------------------|-------------------------|
A|------------------------|------------------------|-------------------------|
F|------------------------|------------------------|-------------------------|
C|-------5-----5----5-----|--7----5-----7----5-----|-------8-----10----8-----|
G|--5-------5----------5--|----------5----------5--|--8-------8-----------8--|
C|------------------------|------------------------|-------------------------|

Q E E Q E E Q E E Q E E Q E E Q E E
D|--------------------------|------------------------|------------------------|
A|--------------------------|------------------------|------------------------|
F|--------------------------|------------------------|------------------------|
C|--10----8-----10----8-----|-------3-----5----3-----|--5----3-----5----3-----|
G|-----------8-----------8--|--3-------3----------3--|----------3----------3--|
C|--------------------------|------------------------|------------------------|

Q E E Q E E Q E E Q E E
D|------------------------|------------------------|
A|------------------------|------------------------|
F|------------------------|------------------------|
C|-------0-----0----0-----|--2----0-----2----0-----|
G|--0-------0----------0--|----------0----------0--|
C|------------------------|------------------------|

Guitar II
H S E. Q H S E. Q H S E. Q
D|----------------------|----------------------|----------------------|
A|----------------------|----------------------|----------------------|
F|----------------------|----------------------|----------------------|
C|----------------------|----------------------|----------------------|
G|--5--------5-5---5----|--5--------5-5---5----|--8--------8-8---8----|
C|--5--------5-5---5----|--5--------5-5---5----|--8--------8-8---8----|

H S E. Q H S E. Q H S E. Q
D|----------------------|----------------------|----------------------|
A|----------------------|----------------------|----------------------|
F|----------------------|----------------------|----------------------|
C|----------------------|----------------------|----------------------|
G|--8--------8-8---8----|--3--------3-3---3----|--3--------3-3---3----|
C|--8--------8-8---8----|--3--------3-3---3----|--3--------3-3---3----|

H S E. Q H S E. Q
D|----------------------|----------------------|
A|----------------------|----------------------|
F|----------------------|----------------------|
C|----------------------|----------------------|
G|--0--------0-0---0----|--0--------0-0---0----|
C|--0--------0-0---0----|--0--------0-0---0----|

Go back to the weird time signature part.
Then the verse riff.
Now for the crazy riff.
S S S S S S S S S S S S S S S S
D|----------------------------------|
A|----------------------------------|
F|----------------------------------|
C|----------------------------------|
G|--1-2-3-0-3-4-5-0-1-2-3-0-5-6-5-0-|
C|--1-2-3-0-------0-1-2-3-0-------0-|

Back to the chorus and the part after that.
Verse riff again.

Part III
Clean guitar.
Q. E Q E E
D|-----------------------|
A|-----------------------|
F|------------5-------2--|
C|---------3-------3-----|
G|--5--------------------|
C|-----------------------|

W Q. E Q E E Q E E E E E E
D|--------------------|-----------------------|--------------------------|
A|---L----------------|-----------------------|--------------------------|
F|---L----------------|------------5-------2--|--L--------------------2--|
C|--------------------|---------3-------3-----|--------------------3-----|
G|--------------------|--5--------------------|-------5--5--5s--7--------|
C|--------------------|-----------------------|--------------------------|

Every few measures it goes to this
Q. E Q E E W Q. E Q E E
D|-----------------------|-------------------|-----------------------|
A|------------6-------5--|-------------------|------------6-------5--|
F|---------7-------7-----|--L----------------|---------7-------7-----|
C|-----------------------|-------------------|-----------------------|
G|--8--------------------|-------------------|--8--------------------|
C|-----------------------|-------------------|-----------------------|

There's also a 2nd guitar playing this part an octave higher. Or it could be 1 string
guitar, I'm not really sure.

Clean part right before solo. Outro guitar solo!
Q E E E E E E W H H
D|---------------13----------13--|--------------------|--17--------15--------|
A|-----------17----------17------|--------------------|----------------------|
F|-------------------------------|--------------------|----------------------|
C|-------15----------15----------|--15----------------|----------------------|
G|--5----------------------------|--------------------|----------------------|
C|-------------------------------|--------------------|----------------------|

|-----3-----|
H Q Q Q H H W
D|--L--------L----13----15----|--12------------------|-------------------|
A|----------------------------|------------10--------|--L----------------|
F|----------------------------|----------------------|-------------------|
C|----------------------------|----------------------|-------------------|
G|----------------------------|----------------------|-------------------|
C|----------------------------|----------------------|-------------------|

E E E E E E E E H Q Q
D|------10----------10----------10--|---L--------10----12----|
A|----------11----------11----------|------------------------|
F|--10----------10----------10------|------------------------|
C|----------------------------------|------------------------|
G|----------------------------------|------------------------|
C|----------------------------------|------------------------|

Q. E Q E E W H H
D|--12----------------17------|-------------------|--12g17--------15--------|
A|----------10--10--------17--|--L----------------|-------------------------|
F|----------------------------|-------------------|-------------------------|
C|----------------------------|-------------------|-------------------------|
G|----------------------------|-------------------|-------------------------|
C|----------------------------|-------------------|-------------------------|

|-----3-----| |-----3-----|
Q Q Q Q Q Q Q. E Q E E
D|--L----13----15----13----15----------|-----------------------17------|
A|-------------------------------15----|--15g17------10--10--------17--|
F|-------------------------------------|-------------------------------|
C|-------------------------------------|-------------------------------|
G|-------------------------------------|-------------------------------|
C|-------------------------------------|-------------------------------|

W E E E E E E E E
D|-------------------|------10----------10----------10--|
A|--L----------------|----------11----------11----------|
F|-------------------|--10----------10----------10------|
C|-------------------|----------------------------------|
G|-------------------|----------------------------------|
C|-------------------|----------------------------------|

E E E E Q Q Q S E H S
D|----------10------10----12----|--12----L-----------------|
A|--11--------------------------|----------10--10--------L-|
F|------10------10--------------|--------------------------|
C|------------------------------|--------------------------|
G|------------------------------|--------------------------|
C|------------------------------|--------------------------|

^
H. E T T T T W W
D|--8------------L-----------12-|---L----------------|--L----------------|
A|--8------------L--------15----|---L----------------|--L----------------|
F|---------------------14-------|---L----------------|--L----------------|
C|------------------12----------|---L----------------|--L----------------|
G|------------------------------|--------------------|-------------------|
C|------------------------------|--------------------|-------------------|

Acoustic guitar during the solo

Chords are Fm, Gm, G#m, Gm
^ ^ v ^ v ^ ^ v ^
H Q E E E E Q Q E E
D|--3--------3----(3)--3--|--L--(3)--3----3----(3)--3--|
A|--3--------3-----3---3--|--L---3---3----3-----3---3--|
F|--3--------3-----3---3--|--L---3---3----3-----3---3--|
C|--5--------5-----5---5--|--L---5---5----5-----5---5--|
G|------------------------|----------------------------|
C|------------------------|----------------------------|

^ ^ v ^ v ^ ^ v ^ ^ ^ v ^
H Q E E E E Q Q E E H Q E E
D|--0--------0----(0)--0--|--L--(0)--0----0----(0)--0--|--1--------1----(1)--1--|
A|--1--------1-----1---1--|--L---1---1----1-----1---1--|--2--------2-----2---2--|
F|--2--------2-----2---2--|--L---2---2----2-----2---2--|--3--------3-----3---3--|
C|--2--------2-----2---2--|--L---2---2----2-----2---2--|--3--------3-----3---3--|
G|--0--------0-----0---0--|------0---0----0-----0---0--|--1--------1-----1---1--|
C|------------------------|----------------------------|------------------------|

v ^ ^ v ^ ^ ^ v ^
E E Q Q E E H Q E E
D|--L--(1)--1----1----(1)--1--|--0--------0----(0)--0--|
A|--L---2---2----2-----2---2--|--1--------1-----1---1--|
F|--L---3---3----3-----3---3--|--2--------2-----2---2--|
C|--L---3---3----3-----3---3--|--2--------2-----2---2--|
G|------1---1----1-----1---1--|--0--------0-----0---0--|
C|----------------------------|------------------------|

v ^ ^ v ^ ^ ^ v ^
E E Q Q E E H Q E E
D|--L--(0)--0----0----(0)--0--|--3--------3----(3)--3--|
A|--L---1---1----1-----1---1--|--3--------3-----3---3--|
F|--L---2---2----2-----2---2--|--3--------3-----3---3--|
C|--L---2---2----2-----2---2--|--5--------5-----5---5--|
G|------0---0----0-----0---0--|------------------------|
C|----------------------------|------------------------|

v ^ ^ v ^ ^ ^ v ^
E E Q Q E E H Q E E
D|--L--(3)--3----3----(3)--3--|--0--------0----(0)--0--|
A|--L---3---3----3-----3---3--|--1--------1-----1---1--|
F|--L---3---3----3-----3---3--|--2--------2-----2---2--|
C|--L---5---5----5-----5---5--|--2--------2-----2---2--|
G|----------------------------|--0--------0-----0---0--|
C|----------------------------|------------------------|

v ^ ^ v ^ ^ ^ v ^
E E Q Q E E H Q E E
D|--L--(0)--0----0----(0)--0--|--1--------1----(1)--1--|
A|--L---1---1----1-----1---1--|--2--------2-----2---2--|
F|--L---2---2----2-----2---2--|--3--------3-----3---3--|
C|--L---2---2----2-----2---2--|--3--------3-----3---3--|
G|------0---0----0-----0---0--|--1--------1-----1---1--|
C|----------------------------|------------------------|

v ^ ^ v ^ ^ ^ ^ v ^
E E Q Q E E H Q E E W
D|--L--(1)--1----1----(1)--1--|--0--------0----0--(0)--|--0----------------|
A|--L---2---2----2-----2---2--|--1--------1----1---1---|--1----------------|
F|--L---3---3----3-----3---3--|--2--------2----2---2---|--2----------------|
C|--L---3---3----3-----3---3--|--2--------2----2---2---|--2----------------|
G|------1---1----1-----1---1--|--0--------0----0---0---|--0----------------|
C|----------------------------|------------------------|-------------------|

That's all the guitar parts in the song! Enjoy!

Duration Legend
---------------
W - whole
H - half
Q - quarter
E - 8th
S - 16th
T - 32nd
X - 64th
. - note dotted
|-n-| - n-tuplets

Tablature Legend
----------------
L - tied note
x - dead note
g - grace note
(n) - ghost note
> - accentuded note
NH - natural harmonic
AH - artificial harmonic
TH - tapped harmonic
SH - semi harmonic
PH - pitch harmonic
h - hammer on
p - pull off
b - bend
br - bendRelease
pb - preBend
pbr - preBendRelease
brb - bendReleaseBend
\n/ - tremolo bar dip
\n - tremolo bar dive
-/n - tremolo bar Release up
/n\ - tremolo bar inverted dip
/n - tremolo bar return
-\n - tremolo bar Release down
S - shift slide
s - legato slide
/ - slide into from below or out of upwards
\ - slide into from above or out of downwards
~ - vibrato
W - wide vibrato
tr - trill
TP - tremolo picking
T - tapping
S - slap
P - pop
< - fade in
^ - brush up
v - brush down
Song info
Anesthetize
Porcupine Tree
2001
  • Rock
  • Stage & Screen
  • Alternative Rock
  • Prog Rock
  • Psychedelic Rock
Alternative tracks
Similar songs
Road Trippin - Red Hot Chili Peppers
Never Too Late - Three Days Grace
Swimming Horses - Siouxsie and the Banshees
Burning Down The House - Talking Heads
Green Eyed Lady - Sugarloaf

Hi! Hope you enjoy backing track experience.
If you want to help us in the development of the project, feel free to donate!