Now Im Here - Queen
00:00 / 00:00
Tabs and lyrics
Tunning: Standard (E A D G B e)
Queen: Now I'm Here
Album: Sheer Heart Attack

e|---------|----|--------|---------|-------------------------|---------|
B|---------|----|------2-|-3-------|-------------------------|---------|
G|-22222222|-0/-|-222220-|-22222222|-----------------00000000|-000000-0|
D|-00000000|-/0-|-0000000|-00000000|-000000000000000000000000|-000000-0|
A|---------|----|--------|---------|-333333332222222211111111|-1111113-|
E|---------| 3X |--------|---------|-------------------------|---------| riff A


e|---------|----|--------|----------|-----------------|------------------|
B|---------|----|------2-|-3--------|-----------------|-------2-3--------|
G|-22222222|-0/-|-2222202|-222222222|-----------------|-2222220-222222222|
D|-00000000|-/0-|-0000000|-000000000|-0000000000000-00|-00000000000000000|
A|---------|----|--------|----------|-33333333222223--|------------------|
E|---------|----|--------|----------|-----------------|------------------|


e|----------------|---------------------------------------------|
B|----------------|-2----3---32----3----4----5----54----5---2-2-|
G|----------------|-2----0---02----0----4----4----44----4---4-4-|
D|----------000000|-2----2----2----2----4----4-----4----4---4-4-|
A|-333333332222222|-0----0----0----0----2----2-----2----2---4-4-|
E|----------------|---------------------------------------------|


e|----------------------------------------------5-5-|
B|---------------3-3-------------9-9--9-109---7-5-5-|
G|---------------2-2-------------9-9--9--99---7-6-6-|
D|-----2--4-2----0-02--4-4-------9-9--9---9---7-7-7-|
A|--------2-0-----x-0--2-2-----577-7777---7---5-7-7-|
E|-0-34-0-----340---------2-567--0-0000---0-----5-5-|




e|-5557-7--------/55557-7-7---------/12121212121212111112121111-9-9|
B|-7777-7-79-----/77777-7-79-7------/141414141414141212141412121010|
G|---------978-------------978-------------------------------------|
D|------------9---------------97-----------------------------------|
A|------------------------------9----------------------------------|
E|-----------------------------------------------------------------|

e|-77-------------------|
B|-77977--7---77---77...|
G|---978--7---77---77...|
D|------977---77---77...|
A|--------9--999--999...|
E|----------------------|



************************************

| / Slide up
| x Dead note

************************************
Tunning: Standard (E A D G B e)
Now I'm Here - Queen
Tabbed by: Me
Tuning: Standard

[Intro]
x6
e|----------|---------------------------------------------------------------|
B|----------|---------------------------------------------------------------|
G|----------|---------------------------------------------------------------|
D|-77777777-|-55555555-44444444-33333333-33333557-77777777-77777777---------|
A|-55555555-|-33333333-22222222-11111111-11111335-55555555-55555555---------|
E|----------|---------------------------------------------------------------|

x2
e|----------|-------------------------------------------------------------|
B|----------|-------------------------------------------------------------|
G|----------|-------------------------------------------------------------|x2
D|-77777777-|-55555555-44444557-------------------------------------------|
A|-55555555-|-33333333-22222335-------------------------------------------|
E|----------|-------------------------------------------------------------|

[Riff 1]
e|--------------------------------------------------------------------------|
B|-2--3--2--3--4--5--4--5---------------------------------------------------|
G|-2--2--2--2--4--4--4--4---------------------------------------------------|
D|-2--2--2--2--4--4--4--4---------------------------------------------------|
A|-0--0--0--0--2--2--2--2---------------------------------------------------|
E|--------------------------------------------------------------------------|

[Riff 2]
e|--------------------------------------------------------------------|
B|--------------------------------------------------------------------|
G|--------------------------------------------------9-----9---9--7----|
D|-----2-----4-2--------7-7-----4-4-----------------9-----9---9--7-7--|
A|-----------2-0--------5-5-7---2-2--4--------5-7---7-7-7-7-7-7--5-7--|
E|0-34---0-------340--------5--------2--5-6-7-----0-0-0-0-0-0-0----5--|

[Verse]
e|--------------------------------------------------------------------------|
B|--------------------------------------------------------------------------|
G|--------------------------------------------------------------------------|
D|---------------------9-9-11-9--9-7------------------------9-9-11-9--9-----|
A|-9-9-11-9--9-9-11-9--7-7--7-7--7-5-7--9-9-11-9--9-9-11-9--7-7--7-7--7-----|
E|-7-7--7-7--7-7--7-7----------------5--7-7--7-7--7-7--7-7------------------|

[1st Chorus]
e|--------------------------------------------------------------------------|
B|--------------------------------------------------------------------------|
G|--------------------------------------------------------------------------|
D|---9-------7-7-------9--------11-11---------13-------7-7------------------|
A|-9-7--7-7--5-5--9-9--7--11-11--9--9--13-13--11--14~--5-5-5~---------------|
E|-7----5-5-------7-7------9--9--------11-11------12~------3~---------------|

[Riff 3]
e|--------------------------------------------------------------------------|
B|-4--5--4--5---------------------------------------------------------------|
G|-4--4--4--4---------------------------------------------------------------|
D|-4--4--4--4---------------------------------------------------------------|
A|-2--2--2--2---------------------------------------------------------------|
E|--------------------------------------------------------------------------|

[2nd Chorus]
e|--------------------------------------------------------------------------|
B|--------------------------------------------------------------------------|
G|--------------------------------------------------------------------------|
D|---7-------5-5-------7---------9--9--------11--------9-9------------------|
A|-7-5--5-5--3-3--7-7--5---9--9--7--7--11-11--9---12~--7-7-7~---------------|
E|-5----3-3-------5-5------7--7---------9--9------10~------5~---------------|

[Song Order]
[Intro]
[Riff 1]
[Riff 2]
[Verse]
[1st Chorus]
[Riff 3]
[Riff 2]
[Verse]
[2nd Chorus]
[Solo]
[2nd Chorus
[Variation of Intro]
[Variation of Riff 2]
[Solo]

************************************

| ~ Vibrato

************************************
Song info
Now Im Here
Queen
2001
  • Rock
  • Classic Rock
Alternative tracks
Similar songs
The Last Time - The Rolling Stones
World On Fire - Slash
Oye como va - Santana
Badlands - Bruce Springsteen

Hi! Hope you enjoy backing track experience.
If you want to help us in the development of the project, feel free to donate!