We Are The Champions - Queen
00:00 / 00:00
Tabs and lyrics
Tunning: Standard (E A D G B e)
two guitars arr. for one
e|-------------------|-------------------|
B|-------8-----9-----|-8-----11-9--------|
G|-8---8---8-----8---|---8--------8------|
D|---8-------8-----8-|--------------8-10-|
A|-------------------|-------------------|
E|-------------------|-------------------|

two guitars (left&right) arr.for one
e|---------------------------------1--------------------------------|
B|-8---6---------------------------1-1---1-------------6\-----------|
G|-8---7---3-\-----3-------5-\-----2-----2---2-----7---7\---3---3-\-|
D|-8---8---5-\-3---3-------5-\-3---------2---2-----7---7\---3---5-\-| riff A (1)
A|-6---5---3-\-3---1-------3-\-3---------0---0---0-5---5\---1---3-\-|
E|-------------1---------------1-------3----------------------------|

midle guitar
e|-----1-----------------------------| |--------|
B|-1-----1---------1---------3-------| |-1---3--| riff A (2)
G|-2-----2-----2---2-----3---3-------| |-2---2--|
D|-3-----3-----2---2-----3---3-------| |-1---0--|
A|-3-----------0---0---0-1---1-0-----| |--------|
E|-1-------1-3-------------------3-2-| |--------|

e|-3---3---3-------------------------------1--------1--------------------------|
B|-3---3---3-5---5-------3-----------------1-1----------1------6-4-------6-----|
G|-3---3---3-5---5---3---3-----------------2---2-3----3----5-------5-------7---|
D|-5---5---5-5---5---3---3---------5-\-3---------1---------6-----------------9-|
A|-5---5---5-3---3---1---1---4-7-------3---------1---------6---------8---------|
E|-3---3---3-3---3---------------------1---------3---------4---------6---------|
riff A (3)
e|-------------|
B|-------------|
G|-10-10-------| riff A (4)
D|--8--8-------|
A|-10-10--\3---|
E|--8--8---1---|

|right guitar
e|----------------|----------------------|----------------|------------------|
B|----------------|-------------8--------|----------------|------------------|
G|------------10--|----------------------|-----------10---|------------------|
D|--10---8--------|--------12-8---8-12-8-|--------12-----8|-10---12----------|
A|---------10-----|----------------------|----------------|-----------10-----|
E|----------------|----------------------|----------------|------------------|
|left guitar | | | |
e|----------------|----------------------|----------------|------------------|
B|----------------|----------------------|----------------|------------------|
G|----------------|----------------------|----------------|-----8-------10\--|
D|-------8--------|----10---8----12------|-----10p8-------|--------12-8------|
A|---------10-----|-----------10---------|-8--------8h10--|------------------|
E|-8--------------|-8--------------------|----------------|-8----------------|


e|-------------------|--------------------|
B|---------8---9-----|-8---8-11-9---------|
G|-----8-----8---8---|------------8-------|
D|---8-------------8-|---8----------8-10--|
A|-6-----------------|--------------------|
E|-------------------|--------------------|

riff A

e|------1---------------------------------------1----------------------------|
B|------1---------1-----6---6\------------------1-----1----------------------|
G|------2-----2---2-----7---7\--3-3---5-5-\-----2-2---2---2---3----3---------|
D|------------2---2-----7---7\--3-3---5-5-\-3-----3---2---2---3----3---------|
A|-(3)--------0---0---0-5---5\--1-1---3-3-\-3-----3---0---0---1----1-0-------|
E|-(1)----1-3-------------------------------1-----1-3------------------3-2---|


e|-------------3----------------------------|
B|-------------3---5---5--------------------|
G|-----2-0-----3---5---5--------------------|
D|-1-0-----5-------5---5---------------5-\--|
A|---------5-------3---3---1-----4-7--------|
E|---------3-------3---3--------------------|

riff A (3)

e|---------|
B|--8--8---|
G|-10-10---|
D|--8--8---|
A|-10-10---|
E|--8--8---|

the solos (midle guitar):
e|--------------------------------||----------------------------------------|
B|-b11-b11-b11-b13-r11-8----------||----------------------------------------|
G|-----------------------9--------||-17b19-b19-14--17b19--------------------|
D|-------------------------10-----||---------------------b19-17-15----------|
A|----------------------------8---||-------------------------------17-15--\-|
E|--------------------------------||----------------------------------------|

e|---------------------------------------|
B|---------------------------------------|
G|----------------------12-14-15-/17-----|
D|-12---h13r12p10h12---------------------|
A|-----------------------------------15\-|
E|---------------------------------------|

e|-----------------------------------------------------------------------------|
B|-----------------------------------------------------------------------------|
G|-15---17---18-17---15-\5---10----------10\0--------10\---------10-----10-10--|
D|-------------------------------8/10---------/10-------/10-10------10---------|
A|-----------------------------------------------------------------------------|
E|-----------------------------------------------------------------------------|

e|------------------------------------------|
B|-13b15---b15--b15---13b15--r13p11-10------|
G|-------------------------------------12-\-|
D|------------------------------------------|
A|------------------------------------------|
E|------------------------------------------|

e|------17b18-17-18-15b17--b17r15p13--15b17--b17r15p13--15b17--b17r15p13--|
B|-8/15-------------------------------------------------------------------|
G|------------------------------------------------------------------------|
D|------------------------------------------------------------------------|
A|------------------------------------------------------------------------|
E|------------------------------------------------------------------------|

e|-15b16--b16r15p13--20b22--20-18-17-----------------|
B|-----------------------------------20-18-20--------|
G|-------------------------------------------19-17\--|
D|---------------------------------------------------|
A|---------------------------------------------------|
E|---------------------------------------------------|



************************************

| (n) Ghost note
| h Hammer-on
| p Pull-off
| r Release
| b Bend
| / Slide up
| \ Slide down

************************************
Tunning: Nashville (E A D G B E)
Title : We Are The Champions (Acoustic Version)
Artist : Queen


Guitar (Capo 3)
jagdeep_1789@yahoo.com

Pls Give This Tab A Good Rate..


Intro
E||------------------||---------------------|--------------------|
B||------------------||---1--------1--------|--0----0------------|
G||-----------0--0-2-||*--2-----2-----2-----|--0----0-----0--0-2-|
D||--------2---------||*-----2-----------2--|--0----0--2---------|
A||------------------||---0-----------------|--------------------|
E||------------------||---------------------|--0----0------------|



--------------------|----------------------|--------------------|
--1--------1--------|--0----0--------------|--1--------1--------|
--2-----2-----2-----|--0----0------0-0-0-2-|--2-----2-----2-----|
-----2-----------2--|--0----0--2-2---------|-----2-----------2--|
--0-----------------|----------------------|--0-----------------|
--------------------|--0----0--------------|--------------------|



--------------------|--------------------|--------------------|
--0----0------------|--1--------1--------|--0----0-----0--0-1-|
--0----0-----0--0-2-|--2-----2-----2-----|--0----0--0---------|
--0----0--2---------|-----2-----------2--|--0----0------------|
--------------------|--0-----------------|--------------------|
--0----0------------|--------------------|--0----0------------|



--------------------|--1----1------------|--------------------|
--1--------1--------|--1----1-----0--0-1-|--1--------1--------|
--0-----0-----0-----|--0----0--0---------|--0-----0-----0-----|
-----2-----------2--|--------------------|-----2-----------2--|
--3-----------------|--3----3------------|--3-----------------|
--------------------|--------------------|--------------------|



--1----1------------|--------------------|--0-----0--2-----2--|
--1----1-----0--0-1-|--1-----1--3-----3--|--1-----1--1-----1--|
--0----0--0---------|--0-----0--0-----0--|-----2--------2-----|
--------------------|-----2--------2-----|--------------------|
--3----3------------|--3--------2--------|--0-----------------|
--------------------|--------------------|-----------2--------|



--3------------------1-|--5----3--5----3--|--5----3--5------|
--0-----0--------0-3---|--1-------1-------|--1-------2------|
-----0---------0-------|--0-------0-------|--0-------2------|
-------------0---------|--0-------0-------|--0-------2------|
-----------2-----------|--0-------0-------|--0-------0------|
--3--------------------|------------------|-----------------|


We Are The Champions
--------------------|--------------------|--------------------|
--3--------3-----3--|--2-----------------|--3-----------------|
--2-----2--2-----2--|--2-----2--2--------|--4-----4--4--------|
--0--0--------0-----|-----4-----4-----4--|-----4-----4-----4--|
--0-----------------|--------------4-----|--2-----------2-----|
--------------------|--2-----------------|--------------------|



--------------------|--------------0--2--|--5--------2--------|
--------------------|--3--------3--3--3--|--2-----2--2-----2--|
-----------2--2--2--|--2-----2--2--------|--2--2--------2-----|
--5--5--5--2--2--2--|--0--0--------------|--4-----------------|
--5--5--5--0--0--0--|--0-----------------|--------------------|
--3--3--3-----------|--------------------|--------------------|



--------------------|--------------------|--------------------|
--0-----------------|-----------1--0-----|--0--------------0--|
--0--------0--------|--2-----2--2-----2--|--0-----0--2--------|
--0-----0-----4--2--|--1--4-----1--------|--2--2-----2--------|
-----2--------------|--2--------2--------|--------------2-----|
--3-----------------|--------------------|--3-----------------|



--------------------|--3--------2-----3--|--2--------0--------|
--------------------|--2-----2--2-----2--|--2--------2-----2--|
--2--------0-----0--|--3--3--------3--3--|--------3--3--3-----|
--2-----2--2--2-----|--2-----------------|-----4-----2--------|
-----2--------------|-----------------0--|--4-----------------|
--------------------|--------------------|--------------------|



--2-----2--------3--|--2-----2--------3--|--1-----1--------3--|
--3--------3--------|--3--------3--------|--3-----0--3--------|
--2--2-----2--------|--2--2-----2--------|--0--0--------0-----|
--0-----------0-----|--------------------|--0-----------------|
--------------------|--3-----------3-----|--------------------|
--------------------|--------------------|--------------------|



--1-----1-----------|-------------------|-----------1--------|----------------|
--0--------3--1-----|--3-3-3------1-----|--3-----3--3--3-----|--0----0--------|
--0--0-----------2--|--5-5-5---------2--|--2--2-----------2--|--0----0--------|
--------0-----------|--5-5-5------------|--0-----------------|--0----0--------|
--2--------5--3--0--|--0-0-0------------|--0-----------------|----------------|
--------------------|--5-5-5------------|--------------------|----------------|



--------------------|----------------------||--------------------|
-----------3--------|--0----0--------------||--3--------3-----3--|
--------2-----2-----|--2----2------0--0-2-*||--2-----2--2-----2--|
-----3-----------3--|--2----2--2-2--------*||--0--0--------0-----|
--5-----------------|--0----0--------------||--0-----------------|
--------------------|----------------------||--------------------|



--------------------|--------------------|--------------------|
--2-----------------|--3-----------------|--------------------|
--2-----2--2--------|--4-----4--4--------|-----------2--2--2--|
-----4-----4-----4--|-----4-----4-----4--|--5--5--5--2--2--2--|
--------------4-----|--2-----------2-----|--5--5--5--0--0--0--|
--2-----------------|--------------------|--3--3--3-----------|



--------------0--2--|--5--------2--------|--------------------|
--3--------3--3--3--|--2-----2--2-----2--|--0-----------------|
--2-----2--2--------|--2--2--------2-----|--0--------0--------|
--0--0--------------|--4-----------------|--0-----0-----4--2--|
--0-----------------|--------------------|-----2--------------|
--------------------|--------------------|--3-----------------|



-----------------------|--------------------|--------------------|
-----------1--0-1-0----|--0--------------0--|--------------------|
--2-----2--2--------2--|--0-----0--2--------|--2--------0-----0--|
--1--4-----1-----------|--2--2-----2--------|--2-----2--2--2-----|
--2--------2-----------|--------------2-----|-----2--------------|
-----------------------|--3-----------------|--------------------|



--3--------2-----3--|--2--------0--------|--2-----2--------3--|
--2-----2--2-----2--|--2--------2-----2--|--3--------3--------|
--3--3--------3--3--|--------3--3--3-----|--2--2-----2--------|
--2-----------------|-----4-----2--------|--0-----------0-----|
-----------------0--|--4-----------------|--------------------|
--------------------|--------------------|--------------------|



--2-----2--------3--|--1-----1--------3--|--1-----1-----------|
--3--------3--------|--3-----0--3--------|--0--------3--1-----|
--2--2-----2--------|--0--0--------0-----|--0--0-----------2--|
--------------------|--0-----------------|--------0-----------|
--3-----------3-----|--------------------|--2--------5--3--0--|
--------------------|--------------------|--------------------|



----------------||
--3--3----------||
--5--5----------|| End !
--5--5----------||
--0--0----------||
--5--5----------||
Song info
We Are The Champions
Queen
2001
  • Rock
  • Acoustic
  • Alternative Rock
  • Arena Rock
  • Blues Rock
  • Pop Rock
  • Prog Rock
Alternative tracks
Similar songs
Keep The Faith - Bon Jovi
One Slip - Pink Floyd
Shout - Tears for Fears
Supremacy - Muse

Hi! Hope you enjoy backing track experience.
If you want to help us in the development of the project, feel free to donate!