We Will Rock You - Queen
00:00 / 00:00
Tabs and lyrics
Tunning: Standard (E A D G B e)
Queen: We will rock you News of the world/1977/May

Lyrics:

Buddy you're a boy make a big noise
Playin' in the street gonna be a big man some day
You got mud on yo' face
You big disgrace
Kickin' your can all over the place

Singin'
We will we will rock you
We will we will rock you

Buddy you're a young man hard man
Shoutin' in the street gonna take on
the world some day
You got blood on yo' face
You big disgrace
Wavin' your banner all over the place

We will we will rock you
Singin'
We will we will rock you

Buddy you're an old man poor man
Pleadin' with your eyes gonna make you
some peace some day
You got mud on your face
You big disgrace
Somebody better put you back into your place

We will we will rock you
Singin
We will we will rock you
Everybody
We will we will rock you
We will we will rock you
Alright



------------------------------------------|-----------------------------
-5-------222---2xx--2--2-214---h15--1514--|--1414h1515p1415p141514--14--
-5-------222---2xx--2--2-214--------1414--|--1414---14---14---1414------
-5-------222---2xx-22--2-214-14h16--1614--|----14h1616p1416p141614------
-3-------000---0xx-00--0-0-0-------0------|-0---0---------0------0------
--------------3---2-----3-----------------|-----------------------------

-1715--14--------------------------------------------14----------
-----------17--1514--15---1514--------17--1714-17b19---1714------
---------------1414--14-------1614------14-(14)------------171614
(14)-14--14--14----1616--------(14)-14-----(14)------------------
(-0)------------------0------------------------------------------
-----------------------------------------------------------------

-------------------|--------------------------|------|
-14-15p1415141414--|-14-15p1415141414-15--14--|------|
-14-14---14141414--|-14-14---14141414-14--14--|--0/--|
-14-16p1416141414--|-14-16p1416141414-16--14--|--/0--|
------------0-0-0--|0-0---------0-0-0--0--0---|------|
-------------------|--------------------------|twice |

Live Killers version:
|---------------|------|----------------------------------|------|
|-9--10(p9)10p9-|------|-------10--10p9-------------------|------|
|-9---9-----9---|--0/--|--------9---9---------------------|--0/--|
|-9---9-----9---|--/0--|-9---9--9---9------9---9-911---9--|--/0--|
|-7---7-----7---|------|-7---7-------------7---7-7-----7--|------|
|-0---0-----0---|7times|-0---0-------------0---0-0-----0--|------|

G(X) D(X) C(VIII)

|-----------|
|-----------|
|-----------|
|-------9---|
|-------7---|
|-3-2-1-0---|

...

|------------------------------|----|-------------------------------|
|-12-----12--12--12------------|----|-15b17---17r15p12-15-----------|
|-11b13-b13-b13-b13r12p10----10|-0/-|-----------------------14b16---|
|-------------------------12---|-/0-|-------------------------------|
|------------------------------|----|-------------------------------|
|------------------------------|----|-------------------------------|


|-------------------------------------------------------------------|
|-12------------------(12)------------------------------------------|
|------14p12-14p12-----12-------------------------------------------|
|-----------------14--------14p12-----------------------------------|
|--------------------------------14---13---12---10---12p10----------|
|----------------------------------------------------------12\------|

Tunning: Standard (E A D G B e)
QUEEN - WE WILL ROCK YOU
Brian May
News of the World 1977

This is a sweet solo.
As long as you can sustain the notes how Brian May does it will sound awesome.
Crank this up loud, with lots of distortion and go for it!!

As for the fade in or wind up, I do this and try to get as much feed back as possible
from the amp for the crunchy start.

E----------------------------------------------------------------
B----------------------------------------------------------------
G------------5-----------------------9---------------------------
D------------5-----------------------9---------------------------
A------------3-----------------------8---------------------------
E----------------------------------------------------------------
We will, we will rock you… ^SUSTAIN

E-----------------------------------------------------------------
B-----------------------------------------------------------------
G------------5----5------------2-----2-------2-----2--------------
D------------5----5------------2-----2-------2-----2--------------
A------------3----3------------0-----0-------0-----0--------------
E---------------------------------3-------------3-----------------
PM

E-----------------------------------------------------------------
B----14---14h15----15p14-------14-14--15---14--15p14h15p14--------
G----14---14-------14----------14-14--14---14--14------------14---
D----14---14h16----16p14-------14-14--16---14--16p14h16p14---14---
A----0-------------------------0-----------------------------0----
E-----------------------------------------------------------------


E----17p15--14---------------------------------------------------
B----------------17---15p14------15----15--15p14-----------------
G----------------------------14------------------16p14-----------
D----------------------------16----------------------------------
A----------------------------------------------------------------
E----------------------------------------------------------------



E-----------------------------------------------------------------
B----17--17-14---17b19--19r17---14-------------------14---14h15---
G------------------------------------16b18--r16p14---14---14------
D----------------------------------------------------14---14h16---
A----------------------------------------------------0------------
E-----------------------------------------------------------------


E-----------------------------------------------------------------
B---15p14----------14-----15p14--15p14--14-14-----15----14--------
G---14-------------14-----14-----14-----14-14-----14----14--------
D---16p14----------14-----16p14--16p14--14-14-----16----14--------
A------------------0----------------------------------------------
E-----------------------------------------------------------------

TRANSCRIBED BY BEN TREWARN
rather_large_sideburns@hotmail.com
Tunning: Nashville (E A D G B E)
Artist: Queen
Song: We Will Rock You
Tabbed by: Sarasman

Its easiest to put your index finger over the e,b,g,d strings on
the 14th fret. The whole solo is based around this finger positioning.
When you come to the part where you bend, you do the first bend normally, but
the second bend you have to pre-bend the 16 to make it sound like 18, then pluck
it and release down to 16.

E|-------------------------------------|
B|-------------------------------------|
G|----------5~-----2-x-2--x-x-x-2-x-2--|
D|----------5~-----2-x-2—-x-x-x-2-x-2--|
A|--(7)-----3~-----0-x-0--x-x-x-0-x-0--|
E|-------------------3----x-x-x---3----|

E|----------------------------------------------------|
B|--14h15-15--15p14-----14-14h15-15-15-15p14-15p14----|
G|--14----14--14--------14-14----14-14-14----14-------|
D|--14h16-16--16p14-----14-14h16-16-16-16p14-16p14----|
A|----------------------------------------------------|
E|----------------------------------------------------|

E|-----17p15----14--------------------------------------|
B|--14--------------17---15p14----15~------15p14--------|
G|-----------14----------------14----------------16p14--|
D|------------------------------------------------------|
A|------------------------------------------------------|
E|------------------------------------------------------|

E|------------------------------------|
B|--17-17-14—17b19-17-14--------------|
G|-----------------------18r16-16-14--|
D|------------------------------------|
A|------------------------------------|
E|------------------------------------|

E|--------------------------------------------------------|
B|--14-15p14-15p14-14-14~~---14-15p14-15p14-14-14-----14--|
G|--14-14----14----14-14~~---14-14----14----14-14--14-14--| (x3)
D|--14-16p14-16p14-14-14~~---14-16p14-16p14-14-14--14-14--|
A|--0----------------------------------------------0------|
E|--------------------------------------------------------|


************************************

| x Dead note
| (n) Harmonic
| h Hammer-on
| p Pull-off
| r Release
| b Bend
| ~ Vibrato

************************************
Tunning: Nashville (E A D G B E)
-------------------------------------------------------------------------------
WE WILL ROCK YOU - Queen
-------------------------------------------------------------------------------

Album: John Peel Sessions (BBC Radio 1)

Tabbed by: Isaias Garcia (TexasFury)

Tuning: Standard

Notes: This is the fast studio version which features a full rock band
instrumentation was performed on John Peel's BBC Radio-1 radio show. This is NOT
the "stomp-stomp-clap" version everyone knows. You can hear a live version opening
the show on the "Live Killers" album from 1979.

=============================================================================


Tempo - 157 bpm

Guitar - left

Intro - m.5
H Q E E Q Q E E E E
E||----------------------|---------------------------|
B||----------------------|-------10----10p--9--9--9--|
G||----------------------|--------9-----9------9--9--|
D||----------------------|--------9-----9------9--9--|
A||----------------------|--------------7------7--7--|
E||-------------------0--|--L------------------------|


Q E E Q E E Q Q E E E E
--------------------------|---------------------------|
--L-----------------------|-------10----10p--9--------|
--L------------9----------|--------9-----9---L-----9--|
--L----11p--9--9----------|--------9-----9---L-----9--|
--L-----7------7----------|--------7-----7---L-----7--|
-----------------------0--|--L-----------0---L--0-----|


Q E E E E E E E E E E Q E E
---------------------------|-----------------------------|
---------------------------|-----------------------------|
--L------------9-----------|-----------------------------|
--L----11p--9--9-----------|--9--9--11p--9--9----11p--9--|
--L-----7------7-----------|--7--7---7---7--7-----7---7--|
------------------0--0--0--|--0--0---0---0--0-----0---0--|


E E E E Q E E E E E E Q E E
-----------------------------|-----------------------------|
-----------------------------|-----------------------------|
-----------------------------|----------------9------------|
--9--9--11p--9--9----11p--9--|--9--9--11p--9--9----11p--9--|
--7--7---7---7--7-----7---7--|--7--7---7---7--7-----7---7--|
--0--0---0---0--0-----0---0--|--0--0---0---0--0-----0---0--|


E E E E Q E E E E E E E E E E
-----------------------------|------------------------------|
--------10-----9-------------|------------------------------|
---------9-----9---------12--|--12--12--12--7--7--L\-----5--|
--9--9---9--9--9----11h--12--|--12--12--12--7--7--L\-----5--|
--7--7---7--7--7-----7---10--|--10--10--10--5--5--L\-----3--|
--0--0---0--0--0-----0-------|------------------------------|


E E Q E E E E E E E E Q E E
-------------------------|---------------------------|
-------------------------|--------10-----10----------|
--5--5--5----------------|---------9--9---9----------|
--5--5--5----------------|---------9--9---9----------|
--3--3--3----------------|---------7--7---7----------|
-------------3--2--1--0--|--0--0---0--0---0----0--0--|


E E E E Q E E E E E E Q E E
---------------------------|----------------------------|
--------10-----9-----------|----------------------------|
---------9--9--9----x--12--|--12--12--12--7--7----x--5--|
--9--9---9--9--9----x--12--|--12--12--12--7--7----x--5--|
--7--7---7--7--7----x--10--|--10--10--10--5--5----x--3--|
--0--0---0--0--0-----------|----------------------------|


Verse 1
E E Q E E E E E E E E Q E E
-------------------------|-----------------------------|
-------------------------|-----------------------------|
--5--5--5----------------|-----------------------------|
--5--5--5----------------|--9--9--11p--9--9----11p--9--|
--3--3--3----------------|--7--7---7---7--7-----7---7--|
-------------3--2--1--0--|--0--0---0---0--0-----0---0--|


E E E E E E E E E E E E E E Q
----------------------------|---------------------------|
----------------------------|---------------------------|
----------------------------|---------------------------|
--9--9--11p--9--9--9--9--9--|--9--9--11p--9--9--9--9----|
--7--7---7---7--7--7--7--7--|--7--7---7---7--7--7--7----|
--0--0---0---0--0--0--0--0--|--0--0---0---0--0--0--0----|


E E Q E E E E Q Q Q Q Q E E E E Q
-------------------------|----------------------|--------------------------|
-------------------------|----------------------|--------------------------|
--5--5--5----------------|----------------------|--------------------------|
--5--5--5----------------|----------------------|--9----11p--9--9--9--L----|
--3--3--3----------------|-------2----2---------|--7-----7---7--7--7--L----|
-------------3--2--1--0--|--0----0----0---------|--0-----0---0--0--0--L----|


Chorus 1
W E E E E H E E E E Q E E
-------------------|-----------------------|----------------------------|
-------------------|-----------------------|----------------------------|
--7----------------|-----------------------|--12--12--12--7--7----x--5--|
--7----------------|-----------------------|--12--12--12--7--7----x--5--|
--5----------------|-----------------------|--10--10--10--5--5----x--3--|
-------------------|--5--3--0--0--0--------|----------------------------|


E E Q E E E E Q E E E E E E
-------------------------|---------------------------|
-------------------------|---------------------------|
--5--5--5----------------|---------------------------|
--5--5--5----------------|--9----11p--9--9--9--9--9--|
--3--3--3----------------|--7-----7---7--7--7--7--7--|
-------------3--2--1--0--|--0-----0---0--0--0--0--0--|


E E E E E E E E E E Q E E Q
-----------------------------|---------------------------|
-----------------------------|---------------------------|
-----------------------------|--12--12--12----7--7--7----|
--L--9--11p--9--9--9--9--L\--|--12--12--12----7--7--7----|
--L--7---7---7--7--7--7--L\--|--10--10--10----5--5--5----|
--L--0---0---0--0--0---------|---------------------------|


Verse 2
PM PM PM
E E Q E E E E E E E E Q E E
-------------------------|---------------------------|
-------------------------|---------------------------|
--5--5--5----------------|---------------------------|
--5--5--5----------------|--------11p--9--9-------9--|
--3--3--3----------------|---------7---7--7-------7--|
-------------3--2--1--0--|--0--0---0---0--0----0-----|


PM
E E E E Q E E E E E E E E E E
---------------------------|----------------------------|
---------------------------|----------------------------|
---------------------------|----------------------------|
--------11p--9--9-------9--|--9--9--11p--9--9--9--9--9--|
---------7---7--7-------7--|--7--7---7---7--7--7--7--7--|
--0--0---0---0--0----0--0--|----------------------------|


PM PM PM PM PM
H E E E E E E E E Q E E E E E E Q E E
-----------------------|-------------------------|--------------------------|
-----------------------|-------------------------|--------------------------|
-----------------------|-------------------------|--------------------------|
--5--------------------|-----9--------9----------|--------11-----9----------|
--3--------------------|-----7--------7----------|---------7-----7----------|
-----------3--2--1--0--|--0-----0--0-------0--0--|--L--0------0-------0--0--|


Chorus 2
H. Q E E Q H E E E E Q Q
--------------------|----------------------|-------------------------------|
--7-----------------|----------------------|--12--12--12--12--12-----------|
--7------------5----|----------------------|--12--12--12--12--12-----------|
--7------------5----|-------------9--------|--12--12--12--12--12----12\----|
--5------------5----|-------------7--------|--10--10--10--10--10----10\----|
--------------------|--5--3--0-------------|-------------------------------|


PM PM
E E Q E E E E E E Q E E E E
-------------------------|---------------------------------|
-------------------------|----------------12----L----12----|
--5--5--5----------------|----------------11b---Lpb--11pb--|
--5--5--5----------------|--------7----7-------------------|
--3--3--3----------------|--------7----7-------------------|
-------------3--2--1--0--|--0--0---------------------------|


S S E E E Q Q E E E E Q Q
-------------------------------|-------------------------------|
--12----L----------------------|--12--12--12--12--12-----------|
--11br-11-9------9--L----------|--12--12--12--12--12-----------|
-------------11--9--L----------|--12--12--12--12--12----12\----|
-------------------------------|--10--10--10--10--10----10\----|
-------------------------10----|-------------------------------|


Breakdown
E E Q E E E E Q Q H H E E E E
-------------------------|---------------------|-----------------------|
-------------------------|---------------------|-----------------------|
--5--5--5----------------|--5------------------|--------------5--5--5--|
--5--5--5----------------|--5------------------|--------------5--5--5--|
--3--3--3----------------|--3------------------|--------------3--3--3--|
-------------3--2--1--0--|---------------------|-----------------------|


Guitar Solo
W W E E Q Q E E
-------------------|-------------------|--------------------------------------|
-------------------|-------------------|-----12----L------12-----12------L----|
-------------------|-------------------|-----11b---Lpb----11b----11pbr---Lpb--|
-------------------|-------------------|--------------------------------------|
-------------------|-------------------|--------------------------------------|
-------------------|-------------------|--------------------------------------|


PM
E E Q Q Q E E Q Q E E
---------------------------------|----------------------------------|
---L--12----L------12-----12-----|-----12----L------12--------------|
---L--11b---Lpb----11b----11b----|-----11b---Lpb----11b--------15b--|
---------------------------------|-----10b---Lpb----10b~------------|
---------------------------------|--------------------------0-------|
---------------------------------|----------------------------------|


PM
Q E E Q E E E E E E S S E E E
----------------------------------|-----------------------------------------|
----------------------------------|-----12---12----12----12-----L-----------|
---Lpb~-----Lpb--12---L~----------|-----11b--11pb--11pb--11pbr-11-9------9--|
----------------------------x-----|----------------------------------11--9--|
----------------------------x-----|-----------------------------------------|
-------------------------------0--|-----------------------------------------|


E E E E S S E E E
-------------------------------------|
-----12------12---12-----L-----------|
-----11b-----11b--11pbr--L-9------9--|
------------------------------11--9--|
-------------------------------------|
-------------------------------------|


E E E E S S E E E E E E E H
------------------------------------------|------------------------------|
-----12---12----12---12----12-12-----12b--|---L--12--10------------------|
-----11b--11pb--11b--11pbr--L-11--9-------|------------------------------|
------------------------------------------|--------------12---L\~--------|
------------------------------------------|------------------------------|
------------------------------------------|------------------------------|


^
E E E E E E E E E E E E E E E E
--------------------------|---------------------------|
--------------------------|-----------9--L-----10-----|
-----------------------7--|-----7-----9--L------9-----|
-----------------------7--|-----7-----9--L------9-----|
--------------------------|---------------------------|
--0--0--0--0--0--0--0-----|--0-----0--------0------0--|


PM PM
E E E E E E E E
--------------------------------|
--9-----10-----------12---12----|
--9------9-----------11b--11pb--|
--9------9----------------------|
--------------------------------|
--0--0---0--0--0--0-------------|


E E E E E E E E
-------------------------------------------------|
--12---12----12----12----12----12----12----12----|
--11b--11pb--11pb--11pb--11pb--11pb--11pb--11pb--|
-------------------------------------------------|
-------------------------------------------------|
-------------------------------------------------|


E E E E E E E E
-----------------------------------------------|
--12---12----12----12---12----12----12---12----|
--11b--11pb--11pb--11b--11pb--11pb--11b--11pb--|
-----------------------------------------------|
-----------------------------------------------|
-----------------------------------------------|


E E E E E E E E
--------------------------------------------|
--12----12---12----12----12---12--12----12--|
--11pb--11b--11pb--11pb--11b--11--11pb--11--|
--------------------------------------------|
--------------------------------------------|
--------------------------------------------|


PM
E E E E E E E E E E Q E E E E
-------------------------------------|----------------------------------|
--12---12--12--12----L--12~----L-----|-----15b---Lb~-----L--------------|
--11b----------11b---L--11b~---L-----|----------------------14~---L-----|
----------------------------------0--|----------------------------------|
-------------------------------------|----------------------------------|
-------------------------------------|----------------------------------|


Chorus 3
E E E E Q Q E E Q E E E E
--------------------------|-------------------------|
--------------------------|-------------------------|
-----7--L--7--7-----------|--5--5--5----------------|
-----5--L--7--7----12\----|--5--5--5----------------|
--5--5--L--5--5----10\----|--3--3--3----------------|
--------------------------|-------------3--2--1--0--|


PM PM
E E E E E E E E E E E E E E E E
----------------------------|------------------------------|
----------------------------|------------------------------|
----------------------------|------------------------------|
--9--9--11p--9--9--------9--|--L--9--11p--9--9--9--11p--9--|
--7--7---7---7--7--------7--|--L--7---7---7--7--7---7---7--|
--0--0---0---0--0--0--0--0--|--0--0---0---0--0--0---0---0--|


E E E E Q Q E E Q E E E E
------------------------------|-------------------------|
--12--12--12--12--7-----------|-------------------------|
--12--12--12--12--7-----------|--5--5--5----------------|
--12--12--12--12--7----12\----|--5--5--5----------------|
--10--10--10--10--5----10\----|--3--3--3----------------|
------------------------------|-------------3--2--1--0--|


Verse 3
E E E E E E E E E E E E E E E E
-----------------------------|----------------------------|
-----------------------------|----------------------------|
-----------------------------|----------------------------|
--9--9--11p--9--9--9--11--9--|--L--9--11p--9--9--9--------|
--7--7---7---7--7--7---7--7--|--L--7---7---7--7--7--------|
--0--0---0---0--0--0---0--0--|--L--0---0---0--0--0--0--0--|


E E E E E E E E E E Q E E E E
-----------------------------|-------------------------|
-----------------------------|-------------------------|
-----------------------------|--------5----------------|
--9--9--11p--9--9--9--11--9--|--4--4--5----5--5--5-----|
--7--7---7---7--7--7---7--7--|--3--3--3----5--5--5-----|
--0--0---0---0--0--0---0--0--|-------------3--3--3--0--|


E E E E E E E E E E E E E E E E
----------------------------|-----------------------------|
----------------------------|-----------------------------|
----------------------------|-----------------------------|
--9--9--11p--9-----------9--|--9--9--11p--9--9--9--11--9--|
--7--7---7---7-----------7--|--7--7---7---7--7--7---7--7--|
--0--0---0---0--0--0--0--0--|--0--0---0---0--0--0---0--0--|


Chorus 4
H. Q E E Q H E E E E Q Q
----------------------|----------------------|------------------------------|
--7-------------------|----------------------|--12--12--12--12--7-----------|
--7-------------------|----------------------|--12--12--12--12--7-----------|
--7-------------------|----------------------|--12--12--12--12--7----12\----|
--5-------------------|-------------2--------|--10--10--10--10--5----10\----|
---------------12\----|--5--3--0----0--------|------------------------------|


E E Q E E Q E E E E E E E E
------------------------|----------------------------------------------|
------------------------|----------20----20----20----20----20----20----|
--5--5--5---------------|-----19b---Lpb--19pb--19pb--19pb--19pb--19pb--|
--5--5--5----5--5--5----|----------------------------------------------|
--3--3--3----5--5--5----|----------------------------------------------|
-------------3--3--3----|----------------------------------------------|


E E E E Q Q E E Q Q Q
----------------------------------|-------------------------|
--20---20---20---20----L\---------|-------------------------|
--19b--19b--19b--19b---L\---------|-----7--7----7-----------|
----------------------------------|-----5--5----7----12\----|
----------------------------------|--5--5--5----5----10\----|
----------------------------------|-------------------------|


E E Q E E E E E E E E E E E E
-------------------------|----------------------------|
-------------------------|----------------------------|
--5--5--5----------------|----------------------------|
--5--5--5----------------|--9--9--11p--9--9--9-----9--|
--3--3--3----------------|--7--7---7---7--7--7-----7--|
-------------3--2--1--0--|--0--0---0---0--0--0--0--0--|


E E E E E E E E E E E E Q Q
------------------------------|------------------------------|
------------------------------|--12--12--12--12--7-----------|
------------------------------|--12--12--12--12--7-----------|
--L--9--11p--9--9--9--11p--9--|--12--12--12--12--7----12\----|
--L--7---7---7--7--7---7---7--|--10--10--10--10--5----10\----|
--0--0---0---0--0--0---0---0--|------------------------------|


Outro
E E Q E E Q H. E E W
------------------------|----------------------|-------------------|
------------------------|----------------------|-------------------|
--5--5--5---------------|----------------------|-------------------|
--5--5--5----5--5--5----|--2------------L--2/--|-------------------|
--3--3--3----5--5--5----|--0------------L--0/--|-------------------|
-------------3--3--3----|----------------------|-------------------|


H Q H Q E S S W
----------------|-----------------------|-------------------|
----------------|-----------------------|-------------------|
----------------|-----------------------|-------------------|
----------------|-------------------5-5-|--5----------------|
----------------|-------------------3-3-|--3----------------|
----------------|-----------------------|-------------------|


\1/
W W E. S E. S H
-------------------|-------------------|-----------------------||
-------------------|-------------------|--7---7-7---9----------||
-------------------|-------------------|--7---7-7---9----------||
--L----------------|-------------------|--7---7-7---9----------||
--L----------------|-------------------|-----------------------||
-------------------|--0----------------|--------------0--------||




Guitar - right

Intro
H Q E E Q E E Q E E
E||----------------------|----------------------------|
B||----------------------|----------------------------|
G||----------------------|----------------------------|
D||----------------------|-------11p--9--9----11p--9--|
A||-------------------7--|--L-----7---7--7-----7---7--|
E||-------------------0--|--L-----0---0--0-----0---0--|


E E E E E E E E E E E E E E E E
------------------------------|------------------------------|
------------------------------|------------------------------|
------------------------------|------------------------------|
--9--9--11p--9--9--9--11p--9--|--9--9--11p--9--9--9--11p--9--|
--7--7---7---7--7--7---7---7--|--7--7---7---7--7--7---7---7--|
--0--0---0---0--0--0---0---0--|--0--0---0---0--0--0---0---0--|


E E E E E E E E E E E E E E E E
-----------------------------|------------------------------|
-----------------------------|------------------------------|
-----------------------------|------------------------------|
--9--9--11p--9--9--9--11-----|--9--9--11p--9--9--9--11p--9--|
--7--7---7---7--7--7---7-----|--7--7---7---7--7--7---7---7--|
--0--0---0---0--0--0---0--0--|--L--0---0---0--0--0---0---0--|


E E E E E E E E E E E E E E E E
------------------------------|------------------------------|
------------------------------|------------------------------|
------------------------------|------------------------------|
--9--9--11p--9--9--9--11p--9--|--9--9--11p--9--9--9--11p--9--|
--7--7---7---7--7--7---7---7--|--7--7---7---7--7--7---7---7--|
--0--0---0---0--0--0---0---0--|--0--0---0---0--0--0---0---0--|


E E E E E E E E E E E E Q E E
------------------------------|-----------------------------|
------------------------------|-----------------------------|
------------------------------|-----------------------------|
--9--9--11p--9--9--9--11p--9--|--9--9--11p--9--9----11p--9--|
--7--7---7---7--7--7---7---7--|--7--7---7---7--7-----7---7--|
--0--0---0---0--0--0---0---0--|--0--0---0---0--0-----0---0--|


E E E E Q E E E E E E Q E E
-----------------------------|-----------------------------|
-----------------------------|-----------------------------|
-----------------------------|----------------9------------|
--9--9--11p--9--9----11p--9--|--9--9--11p--9--9----11p--9--|
--7--7---7---7--7-----7---7--|--7--7---7---7--7-----7---7--|
--0--0---0---0--0-----0---0--|--0--0---0---0--0-----0---0--|


E E E E Q E E E E E E Q E E
-----------------------------|----------------------------|
--------10-----9-------------|----------------------------|
---------9-----9---------12--|--12--12--12--7--7----x--5--|
--9--9---9--9--9----11h--12--|--12--12--12--7--7----x--5--|
--7--7---7--7--7-----7---10--|--10--10--10--5--5----x--3--|
--0--0---0--0--0-----0-------|----------------------------|


E E Q E E E E E E E E Q E E
-------------------------|-----------------------------|
-------------------------|-----------------------------|
--5--5--5----------------|-----------------------------|
--5--5--5----------------|-----9--11p--9--9----11p--9--|
--3--3--3----------------|-----7---7---7--7-----7---7--|
-------------3--2--1--0--|--L--0---0---0--0-----0---0--|


E E E E Q E E E E E E Q E E
----------------------------|----------------------------|
----------------------------|----------------------------|
---------------------x--12--|--12--12--12--7--7----x--5--|
--9--9--11p--9--9----x--12--|--12--12--12--7--7----x--5--|
--7--7---7---7--7----x--10--|--10--10--10--5--5----x--3--|
--0--0---0---0--0-----------|----------------------------|


Verse 1
E E Q E E E E E E E E Q E E
-------------------------|-----------------------------|
-------------------------|-----------------------------|
--5--5--5----------------|-----------------------------|
--5--5--5----------------|--9--9--11p--9--9----11p--9--|
--3--3--3----------------|--7--7---7---7--7-----7---7--|
-------------3--2--1--0--|--0--0---0---0--0-----0---0--|


E E E E E E E E E E E E E E Q
----------------------------|---------------------------|
----------------------------|---------------------------|
----------------------------|---------------------------|
--9--9--11p--9--9--9--9--9--|--9--9--11p--9--9--9--9----|
--7--7---7---7--7--7--7--7--|--7--7---7---7--7--7--7----|
--0--0---0---0--0--0--0--0--|--0--0---0---0--0--0--0----|


E E Q E E E E E E E E E E E E
-------------------------|-----------------------------|
-------------------------|-----10---L-----9--10--------|
--5--5--5----------------|------9---L--9--9---9--------|
--5--5--5----------------|------9---L--9--9---9--------|
--3--3--3----------------|------7---L--7--7---7--------|
-------------3--2--1--0--|--0---0---L--0--0---0--0--0--|


E E E E H W E E E E H
------------------------|-------------------|-----------------------|
--------10-----9--------|-------------------|-----------------------|
---------9--9--9--------|--7----------------|-----------------------|
--9--9---9--9--9--------|--7----------------|--------------9--------|
--7--7---7--7--7--------|--5----------------|--------------7--------|
--0--0---0--0--0--------|-------------------|--5--3--0--0--0--------|


Chorus 1
E E E E Q E E E E Q E E E E
----------------------------|-------------------------|
----------------------------|-------------------------|
--12--12--12--7--7----x--5--|--5--5--5----------------|
--12--12--12--7--7----x--5--|--5--5--5----------------|
--10--10--10--5--5----x--3--|--3--3--3----------------|
----------------------------|-------------3--2--1--0--|


Q E E E E E E E E E E E E E E
-------------------------|---------------------------|
-------------------------|--------10-----------------|
-------------------------|---------9-----------------|
-------------------------|---------9-----------------|
-------------------------|---------------------------|
--0----0--0--0--0--0--0--|--L--0---0--0--0--0--0--0--|


E E Q E E Q E E Q E E E E
---------------------------|-------------------------|
---------------------------|-------------------------|
--12--12--12----7--7--7----|--5--5--5----------------|
--12--12--12----7--7--7----|--5--5--5----------------|
--10--10--10----5--5--5----|--3--3--3----------------|
---------------------------|-------------3--2--1--0--|


Verse 2
Q E E Q E E Q E E E E E E Q E E H
--------------------------|---------------------------|-----------------------|
--------------------------|---------------------------|-------10-----9--------|
--------------------------|---------------------------|--------9--9--9--------|
--9----11p--9--9-------9--|--L----11p--9--9--9--9--9--|--9-----9--9--9--------|
--7-----7---7--7-------7--|--L-----7---7--7--7--7--7--|--7-----7--7--7--------|
--------0---0--0----0-----|--------0---0--0--0--0--0--|--0-----0--0--0--------|


E E Q H E E E E E E Q E E E E E E Q
-----------------------|-------------------------|---------------------------|
-----------------------|-------------------------|---------------------------|
-----------------------|-------------------------|----------------------7----|
--5--5--5--------------|--9--9--L--9--9--9--L----|--9--9--11p--9--9--9--7----|
--3--3--3--------------|--7--7--L--7--7--7--L----|--7--7---7---7--7--7--5----|
-------------3~--------|-------------------------|----------------------5----|


Chorus 2
H E E Q E E E E H E E E E Q Q
----------------------|-----------------------|-------------------------------|
----------------------|-----------------------|--12--12--12--12--12-----------|
--7--------L--5--5----|-----------------------|--12--12--12--12--12-----------|
--7--------L--5--5----|--------------9--------|--12--12--12--12--12----12\----|
--5--------L--5--5----|--4--2--------7--------|--10--10--10--10--10----10\----|
--5--------L----------|--5--3--0--0-----------|-------------------------------|


E E Q E E E E Q E E Q E E
-------------------------|--------------------------|
-------------------------|--------------------------|
--5--5--5----------------|---------------9----------|
--5--5--5----------------|--9----11p--9--9-------9--|
--3--3--3----------------|--7-----7---7--7-------7--|
-------------3--2--1--0--|--0-----0---0--0----0--0--|


E E E E E E Q E E E E Q Q
----------------------------|-------------------------------|
----------------------------|--12--12--12--12--12-----------|
----------------------------|--12--12--12--12--12-----------|
--L--9--11p--9--9--9--9\----|--12--12--12--12--12----12\----|
--L--7---7---7--7--7--7\----|--10--10--10--10--10----10\----|
--L--0---0---0--0--0--0\----|-------------------------------|


Breakdown
E E Q E E E E Q Q H H E E E E
-------------------------|---------------------|-----------------------|
-------------------------|---------------------|-----------------------|
--5--5--5----------------|--5------------------|--------------5--5--5--|
--5--5--5----------------|--5------------------|--------------5--5--5--|
--3--3--3----------------|--3------------------|--------------3--3--3--|
-------------3--2--1--0--|---------------------|-----------------------|


Guitar Solo
W W E E E E E E E E
-------------------|-------------------|------------------------------|
-------------------|-------------------|------------------------------|
-------------------|-------------------|------------------------------|
-------------------|-------------------|--9--9--11p--9--9--9--11p--9--|
-------------------|-------------------|--7--7---7---7--7--7---7---7--|
-------------------|-------------------|--0--0---0---0--0--0---0---0--|


E E E E E E E E E E E E Q E E
------------------------------|---------------------------|
------------------------------|--------10-----10----------|
------------------------------|---------9--9---9----------|
--9--9--11p--9--9--9--11p--9--|---------9--9---9----------|
--7--7---7---7--7--7---7---7--|---------7--7---7----------|
--0--0---0---0--0--0---0---0--|--0--0---0--0---0----0--0--|


E E Q E E E E E E E E E E E E
-------------------------|-----------------------------|
-------------------------|--------10-----9-------------|
--5--5--5----------------|---------9-----9-------------|
--5--5--5----5--5--5-----|--9--9---9--9--9--9--11p--9--|
--3--3--3----5--5--5-----|--7--7---7--7--7--7---7---7--|
-------------3--3--3--0--|--0--0---0--0--0--0---0---0--|


E E E E E E E E E E E E E E E E
------------------------------|------------------------------|
------------------------------|------------------------------|
------------------------------|------------------------------|
--9--9--11p--9--9--9--11p--9--|--9--9--11p--9--9--9--11p--9--|
--7--7---7---7--7--7---7---7--|--7--7---7---7--7--7---7---7--|
--0--0---0---0--0--0---0---0--|--0--0---0---0--0--0---0---0--|


E E Q E E E E E E E E E E E E
-------------------------|------------------------------|
-------------------------|------------------------------|
--5--5--5----------------|------------------------------|
--5--5--5----------------|--9--9--11p--9--9--9--11p--9--|
--3--3--3----5--4--3-----|--7--7---7---7--7--7---7---7--|
-------------3--2--1--0--|--0--0---0---0--0--0---0---0--|


E E E E E E E E E E E E E E E E
------------------------------|----------------------------|
------------------------------|----------------------------|
------------------------------|----------------------------|
--9--9--11p--9--9--9--11p--9--|--9--9--11p--9--9--9--9--9--|
--7--7---7---7--7--7---7---7--|--7--7---7---7--7--7--7--7--|
--0--0---0---0--0--0---0---0--|--0--0---0---0--0--0--0--0--|


PM PM PM PM PM PM PM PM PM PM PM PM PM PM PM PM
E E E E E E Q E E E E E E E E E E E E E E E E
-------------------------|--------------------------|--------------------------|
-------------------------|--------------------------|--------------------------|
--5--5--5----------------|--------------------------|--------------------------|
--5--5--5--5--5--5--5----|--------------------------|-----7-----7--9--------9--|
--3--3--3--5--5--5--5----|--------------------------|-----5-----5--7--------7--|
-----------3--3--3--3----|--0--0--0--0--0--0--0--0--|--0--0--0--0--0--0--0--0--|


E E E E E E E E E E E E E E E E
--------------------------|--------------------------|
--------------------------|--------------------------|
--------------------------|--------------------------|
--------------------------|--------------------------|
--------------------------|--------------------------|
--0--0--0--0--0--0--0--0--|--0--0--0--0--0--0--0--0--|


Chorus 3
E E E E Q Q E E Q E E E E
------------------------------|-------------------------|
--12--12--12--12--7-----------|-------------------------|
--12--12--12--12--7-----------|--5--5--5----------------|
--12--12--12--12--7----12\----|--5--5--5----------------|
--10--10--10--10--5----10\----|--3--3--3----------------|
------------------------------|-------------3--2--1--0--|


E E E E E E E E E E E E E E E E
------------------------------|------------------------------|
------------------------------|------------------------------|
------------------------------|------------------------------|
--9--9--11p--9--9--9--11p--9--|--9--9--11p--9--9--9--11p--9--|
--7--7---7---7--7--7---7---7--|--7--7---7---7--7--7---7---7--|
--0--0---0---0--0--0---0---0--|--0--0---0---0--0--0---0---0--|


E E E E Q Q E E Q E E E E
------------------------------|-------------------------|
--12--12--12--12--7-----------|-------------------------|
--12--12--12--12--7-----------|--5--5--5----------------|
--12--12--12--12--7----12\----|--5--5--5----------------|
--10--10--10--10--5----10\----|--3--3--3----------------|
------------------------------|-------------3--2--1--0--|


Verse 3
E E E E E E E E E E E E E E E E
-----------------------------|----------------------------|
-----------------------------|----------------------------|
-----------------------------|----------------------------|
--9--9--11p--9--9--9--11--9--|--L--9--11p--9--9--9--------|
--7--7---7---7--7--7---7--7--|--L--7---7---7--7--7--------|
--0--0---0---0--0--0---0--0--|--L--0---0---0--0--0--0--0--|


E E E E E E E E E E Q E E E E
-----------------------------|-------------------------|
-----------------------------|-------------------------|
-----------------------------|--5--5--5----------------|
--9--9--11p--9--9--9--11--9--|--5--5--5----5--5--5-----|
--7--7---7---7--7--7---7--7--|--3--3--3----5--5--5-----|
--0--0---0---0--0--0---0--0--|-------------3--3--3--0--|


PM PM
E E E E E E E E E E E E E E Q H. Q
--------------------------|---------------------------|--------------------|
--------------------------|--9-----10-----9-----------|--------------------|
-----7--L--7--9-----------|--9------9-----9-----------|--7------------5----|
-----7--L--7--9-----------|--9------9-----9-----7\----|--7------------5----|
-----5--L--5--7-----------|--7------7-----7-----5\----|--5------------5----|
--0-----0--0--0--0--0--0--|--0--0---0--0--0--0--------|--------------------|


Chorus 4
E E Q H E E E E Q Q E E Q E E Q
----------------------|------------------------------|------------------------|
----------------------|--12--12--12--12--7-----------|------------------------|
----------------------|--12--12--12--12--7-----------|--5--5--5---------------|
-------------9--------|--12--12--12--12--7----12\----|--5--5--5----5--5--5----|
-------------7--------|--10--10--10--10--5----10\----|--3--3--3----5--5--5----|
--5--3--0-------------|------------------------------|-------------3--3--3----|


E E E E E E E E E E E E H
-----------------------------|---------------------------|
-------------------------10--|---L--10---L--10--9--------|
--------------------------9--|---L---9---L---9--9--------|
--9--9--11p--9--9--9--9--11--|---L--11---L--11--9--------|
--7--7---7---7--7--7--7------|---------------------------|
--0--0---0---0--0--0--0------|---0-------0---------------|


E E E E Q Q E E Q E E E E
------------------------------|-------------------------|
--12--12--12--12--7-----------|-------------------------|
--12--12--12--12--7-----------|--5--5--5----------------|
--12--12--12--12--7----12\----|--5--5--5----------------|
--10--10--10--10--5----10\----|--3--3--3----------------|
------------------------------|-------------3--2--1--0--|


E E E E E E E E E E E E E E E E
------------------------------|------------------------------|
------------------------------|------------------------------|
------------------------------|------------------------------|
--9--9--11p--9--9--9--11p--9--|--9--9--11p--9--9--9--11p--9--|
--7--7---7---7--7--7---7---7--|--7--7---7---7--7--7---7---7--|
--0--0---0---0--0--0---0---0--|--0--0---0---0--0--0---0---0--|


Outro
E E E E Q Q E E Q E E Q W
------------------------------|------------------------|-------------------|
--12--12--12--12--7-----------|------------------------|-------------------|
--12--12--12--12--7-----------|--5--5--5---------------|-------------------|
--12--12--12--12--7----12\----|--5--5--5----5--5--5----|--2----------------|
--10--10--10--10--5----10\----|--3--3--3----5--5--5----|--0----------------|
------------------------------|-------------3--3--3----|-------------------|


W H. H Q E S S W
-------------------|---------------|-----------------------|-------------------|
-------------------|---------------|-----------------------|-------------------|
-------------------|---------------|-----------------------|-------------------|
--L----------------|--L------------|-------------------5-5-|--5----------------|
--L----------------|--L------------|-------------------3-3-|--3----------------|
-------------------|---------------|-----------------------|-------------------|


W W W
-------------------|-------------------|-------------------|
-------------------|-------------------|-------------------|
-------------------|-------------------|-------------------|
--L----------------|--9----------------|--L----------------|
--L----------------|--7----------------|--L----------------|
-------------------|--0----------------|--L----------------|


H H
--------------------||
--------------------||
--------------------||
--L-----------------||
--L-----------------||
--L-----------------||



Duration Legend
---------------
W - whole
H - half
Q - quarter
E - 8th
S - 16th

Tablature Legend
----------------
L - tied note
x - dead note
h - hammer on
p - pull off
b - bend
br - bendRelease
pb - preBend
pbr - preBendRelease
brb - bendReleaseBend
S - shift slide
s - legato slide
/ - slide into from below or out of upwards
\ - slide into from above or out of downwards
~ - vibrato
Song info
We Will Rock You
Queen
2001
  • Rock
  • Classic Rock
Alternative tracks
Similar songs
The unknown soldier - The Doors
In my chair - Status Quo
Big Guns - Rory Gallagher

Hi! Hope you enjoy backing track experience.
If you want to help us in the development of the project, feel free to donate!