Little Sister - Queens of the Stone Age
00:00 / 00:00
Tabs and lyrics
Tunning: Standard (E A D G B e)
I didn't tab this I got it from the QOTSA Forum but still post corrections.

main riff:

e-------------------|------------------------|
b--------------999--|------------------------|
g--666-----999-888--|----------999-999-8\6---|
d--666-666-999-666--|----------999-999-8\6---|
a--444-666-777-666--|--999-999-777-777-6\4---|
e------444----------|--999-999---------------|

chorus:

----------------------------------------------|
----------------------------------------------|
--64646464-4-4-4-4--86868686-64646464---------|
--44444444-22222222-66666666-44444444---------|
--44444444-22222222-66666666-44444444---------|
----------------------------------------------|

after chorus:

----------------------------------------------|
--12b-----------------------------------------|
------11b-11b---------------------------------|
--------------11b-----------------------------|
----------------------------------------------|
----------------------------------------------|

----------------------------------------------|
------999-----999-------------999-------------|
--666-888-999-888-666-888-999-888-------------|
--666-666-999-666-666-666-999-666-------------|
--444-----777-----444-666-777-----------------|
----------------------------------------------|

corrections? improvements?

impossible.

let me know anyway
Tunning: Standard (E A D G B e)
Queens of the Stone Age
Little Sister
Lullabies To Paralyze (2005)
Tabbed by DRybes
Email: drybes@gmail.com

Tuning: Down 1 and a half steps == Db Gb B E Ab Db == Time: 4/4

This is all my own work. Distribute as you wish but keep my name on here.

There are two guitars at work here creating the harmony you hear. Solo tab included.

Yes it's in Db tuning, not C like the 3 QOTSA albums before it.


Intro
----------------------------------

Guitar 1:

Db ----|-------------------------|--------------------|
Ab ----|-------------------------|--------------------|
E ----|-9--9-----------------12-|-12-12--------------|
B ----|-9--9-----9--9--9-----12-|-12-12----9--9--9---|
Gb ----|-7--7-----9--9--9-----10-|-10-10----9--9--9---|
Db ----|----------7--7--7--------|----------7--7--7---|

Db ----|-------------------------|--------------------|
Ab ----|-------------------------|--------------------|
E -9--|-9--9-----------------12-|-12-12--------------|
B -9--|-9--9-----9--9--9-----12-|-12-12----9--9--9---| x3
Gb -7--|-7--7-----9--9--9-----10-|-10-10----9--9--9---|
Db ----|----------7--7--7--------|----------7--7--7---|

Guitar 2:

Db ----|-------------------------|--------------------|
Ab ----|-------------------------|--------------------|
E ----|-9--9-----11-11-11----12-|-12-12----16-16-16--|
B ----|-9--9-----11-11-11----12-|-12-12----16-16-16--|
Gb ----|-7--7-----9--9--9-----10-|-10-10----14-14-14--|
Db ----|-------------------------|--------------------|

Db ----|-------------------------|--------------------|
Ab ----|-------------------------|--------------------|
E -9--|-9--9-----11-11-11----12-|-12-12----16-16-16--|
B -9--|-9--9-----11-11-11----12-|-12-12----16-16-16--| x3
Gb -7--|-7--7-----9--9--9-----10-|-10-10----14-14-14--|
Db ----|-------------------------|--------------------|

Verse 1
----------------------------------

Guitar 1:

Db -*--|-------------------------|-------------------- --|
Ab ----|-------------------------|-------------------- |
E -9--|-9--9-----------------12-|-12-12-------------- |
B -9--|-9--9-----9--9--9-----12-|-12-12----9--9--9--- x3 |
Gb -7--|-7--7-----9--9--9-----10-|-10-10----9--9--9--- |
Db ----|----------7--7--7--------|----------7--7--7--- |
|-- x2
Db ----|-------------------------|-------------------------| |
Ab ----|-------------------------|-------------------------| |
E ----|-------------------------|-------------------------| |
B -7--|-7--7-----7--7--7-----5--|-5--5-----5--5--5--4-----| |
Gb -7--|-7--7-----7--7--7-----5--|-5--5-----5--5--5--4-----| |
Db -5--|-5--5-----5--5--5-----3--|-3--3-----3--3--3--2--0--| --|

Guitar 2:

Db -*--|-------------------------|-------------------- --|
Ab ----|-------------------------|-------------------- |
E -9--|-9--9-----------------12-|-12-12----16-16-16-- |
B -9--|-9--9-----9--9--9-----12-|-12-12----16-16-16-- x3 |
Gb -7--|-7--7-----9--9--9-----10-|-10-10----14-14-14-- |
Db ----|----------7--7--7--------|-------------------- |
|-- x2
Db ----|-------------------------|-------------------------| |
Ab ----|-------------------------|-------------------------| |
E -14-|-14-14----14-14-14----12-|-12-12----12-12-12-11-9--| |
B -14-|-14-14----14-14-14----12-|-12-12----12-12-12-11-9--| |
Gb -12-|-12-12----12-12-12----10-|-10-10----10-10-10-9--7--| |
Db ----|-------------------------|-------------------------| --|

Chorus 1
----------------------------------

Guitar 1:

Db |-------------------------|-------------------------| --|
Ab |-------------------------|-------------------------| |
E |-------------------------|-------------------------| |
B |-7--7--7--7--7--7--7--7--|-5--5--5--5--5--5--5--5--| |
Gb |-7--5--7--5--7--5--7--5--|-5--3--5--3--5--3--5--3--| |
Db |-5--5--5--5--5--5--5--5--|-3--3--3--3--3--3--3--3--| |
|-- x3
Db |-------------------------|-------------------------| |
Ab |-------------------------|-------------------------| |
E |-------------------------|-------------------------| |
B |-9--9--9--9--9--9--9--9--|-7--7--7--7--7--7--7--7--| |
Gb |-9--7--9--7--9--7--9--7--|-7--5--7--5--7--5--7--5--| |
Db |-7--7--7--7--7--7--7--7--|-5--5--5--5--5--5--5--5--| --|

Db |-------------------------|-------------------------|
Ab |-------------------------|-------------------------|
E |-------------------------|-------------------------|
B |-7--7--7--7--7--7--7--7--|-5--5--5--5--5--5--5--5--|
Gb |-7--5--7--5--7--5--7--5--|-5--3--5--3--5--3--5--3--|
Db |-5--5--5--5--5--5--5--5--|-3--3--3--3--3--3--3--3--|

Db |-------------------------|------------------------|
Ab |-------------------------|------------------------|
E |-------------------------|------------------------|
B |-9--9--9--9--9--9--9--9--|-9--9--9--9--9--9--9----|
Gb |-9--7--9--7--9--7--9--7--|-9--7--9--7--9--7--9----|
Db |-7--7--7--7--7--7--7--7--|-7--7--7--7--7--7--7----|

Guitar 2:

Db |-------------------------|-------------------------| --|
Ab |-------------------------|-------------------------| |
E |-14-14-14-14-14-14-14-14-|-12-12-12-12-12-12-12-12-| |
B |-14-12-14-12-14-12-14-12-|-12-10-12-10-12-10-12-10-| |
Gb |-12-12-12-12-12-12-12-12-|-10-10-10-10-10-10-10-10-| |
Db |-------------------------|-------------------------| |
|-- x3
Db |-------------------------|-------------------------| |
Ab |-------------------------|-------------------------| |
E |-16-16-16-16-16-16-16-16-|-14-14-14-14-14-14-14-14-| |
B |-16-14-16-14-16-14-16-14-|-14-12-14-12-14-12-14-12-| |
Gb |-14-14-14-14-14-14-14-14-|-12-12-12-12-12-12-12-12-| |
Db |-------------------------|-------------------------| --|

Db |-------------------------|-------------------------|
Ab |-------------------------|-------------------------|
E |-14-14-14-14-14-14-14-14-|-12-12-12-12-12-12-12-12-|
B |-14-12-14-12-14-12-14-12-|-12-10-12-10-12-10-12-10-|
Gb |-12-12-12-12-12-12-12-12-|-10-10-10-10-10-10-10-10-|
Db |-------------------------|-------------------------|

Db |-------------------------|-----------------------|
Ab |-------------------------|-----------------------|
E |-16-16-16-16-16-16-16-16-|-16-16-16-16-16-16-16--|
B |-16-14-16-14-16-14-16-14-|-16-14-16-14-16-14-16--|
Gb |-14-14-14-14-14-14-14-14-|-14-14-14-14-14-14-14--|
Db |-------------------------|-----------------------|

Interlude
----------------------------------

Guitar 1:

Db ----|-------------------------|-------------------|
Ab --15h17p15--------------------|-------------------|
E ----|----------14h16p14-----14h16p14--------------|
B ----|-------------------------|----------14h16p14-| x2
Gb ----|-------------------------|-------------------|
Db ----|-------------------------|-------------------|

Db ----|-------------------------|-----------------------|
Ab ----|-------------------------|-----------------------|
E ----|-9--9--9-----------------|-12-12-12--------------|
B ----|-9--9--9-----9--9--9-----|-12-12-12----9--9--9---|
Gb ----|-7--7--7-----9--9--9-----|-10-10-10----9--9--9---|
Db ----|-------------7--7--7-----|-------------7--7--7---|

Db ----|-------------------------|-------------------|
Ab --15h17p15--------------------|-------------------|
E ----|----------14h16p14-----14h16p14--------------|
B ----|-------------------------|----------14h16p14-|
Gb ----|-------------------------|-------------------|
Db ----|-------------------------|-------------------|

Guitar 2:

Db ----|-------------------------|--------------------|
Ab ----|-------------------------|--------------------|
E -9--|-9--9-----11-11-11----12-|-12-12----16-16-16--|
B -9--|-9--9-----11-11-11----12-|-12-12----16-16-16--| x2
Gb -7--|-7--7-----9--9--9-----10-|-10-10----14-14-14--|
Db ----|-------------------------|--------------------|

Db ----|-------------------------|-----------------------|
Ab ----|-------------------------|-----------------------|
E ----|-9--9--9-----11-11-11----|-12-12-12----16-16-16--|
B ----|-9--9--9-----11-11-11----|-12-12-12----16-16-16--|
Gb ----|-7--7--7-----9--9--9-----|-10-10-10----14-14-14--|
Db ----|-------------------------|-----------------------|

Db ----|-------------------------|--------------------|
Ab ----|-------------------------|--------------------|
E ----|-9--9-----11-11-11----12-|-12-12----16-16-16--|
B ----|-9--9-----11-11-11----12-|-12-12----16-16-16--|
Gb ----|-7--7-----9--9--9-----10-|-10-10----14-14-14--|
Db ----|-------------------------|--------------------|

Verse 2
----------------------------------

Same as Verse 1 but without the first chord (*).

Chorus 2
----------------------------------

Same as Chorus 1.

Solo
----------------------------------

Guitar 1:

Db |-----------------------------|-----------------------------|
Ab |15h17p15---------------------|-----------------------------|
E |-------------14h16p14--------|14h16p14---------------------|
B |-----------------------------|-------------14h16p14--------| x2
Gb |-----------------------------|-----------------------------|
Db |-----------------------------|-----------------------------|

Db |-----------------------------|-----------------------------|
Ab |15h17p15-----17h19p17--------|17h19h20-----19p17p16--------|
E |-----------------------------|-----------------------------|
B |-----------------------------|-----------------------------| x2
Gb |-----------------------------|-----------------------------|
Db |-----------------------------|-----------------------------|

Db |-----------------------------|-------------18b19--------19-|
Ab |-17-17-17----19-19-19--------|20-20-20---------------------|
E |-----------------------------|-----------------------------|
B |-----------------------------|-----------------------------|
Gb |-----------------------------|-----------------------------|
Db |-----------------------------|-----------------------------|

Db |-19--19----17b--17--17----15h17p15-------------------------|
Ab |-----------------------------|-------19p17p16--------------|
E |-----------------------------|-----------------------------|
B |-----------------------------|-----------------------------|
Gb |-----------------------------|-----------------------------|
Db |-----------------------------|---------------------------0-|

Db |-----------------------------|-----------------------------|
Ab |-15--17--------------------15h17---------------------------|
E |---------16------------------|---16-14-16----14-16---------|
B |-----------------------------|--------------------------16-|
Gb |-----------------------------|---------------------14s17---|
Db |-----------------------------|-----------------------------|

Db |-----------------------------|-----------------------------|
Ab |-----------------------------|-----------------------------|
E |-14h16-----------------------|-------------14h16-----------|
B |-------16s14-----------------|------------------16p14p12h16|
Gb |-------------14-----12h14-14-|-12h14p12h14-----------------|
Db |-----------------------------|-----------------------------|

Db |-----------------------------|-----------------------------|
Ab |-----------------------------|-----------------------------|
E |-----------------------------|-----------------------------|
B |---14-------16-14--16-14-----|-14---16---14---13-----------|
Gb |-----------------------------|-----------------------------|
Db |-----------------------------|-----------------------------|

Db |-----------------------------|------12-12------------------|
Ab |----------------12-----------|---12---------15h17-----16---|
E |-----------12----------------|12------------------16-------|
B |-12--h14----------------12h14|-----------------------------|
Gb |-----------------------------|-----------------------------|
Db |-----------------------------|-----------------------------|

Db |-----------------------------|--------s19------------------|
Ab |-15--17--15--17s19--17---15--|-17------------16------------|
E |-----------------------------|-----16----------------------|
B |-----------------------------|-----------------------------|
Gb |-----------------------------|-----------------------------|
Db |-----------------------------|-----------------------------|

Db |-----------------------------|--------17--17--17-----------|
Ab |-15--17--15h17s19---17h19h20-|--19h20----------------------|
E |-----------------------------|-----------------------------|
B |-----------------------------|-----------------------------|
Gb |-----------------------------|-----------------------------|
Db |-----------------------------|-----------------------------|

Db |-17h19-19-19---17h19-19-19---|-15h17-17-17---14------------|
Ab |-----------------------------|-----------------------------|
E |-----------------------------|-----------------------------|
B |-----------------------------|-----------------------------|
Gb |-----------------------------|-----------------------------|
Db |-----------------------------|-----------------------------|

Db |-----19----19-----19----19---|-----22----(22)---19----(19)-|
Ab |--17----17-----19----19------|--20----20-----16----16------|
E |-----------------------------|-----------------------------|
B |-----------------------------|-----------------------------| x4
Gb |-----------------------------|-----------------------------|
Db |-----------------------------|-----------------------------|

Guitar 2:

Db |-------------------------|-------------------------|
Ab |-------------------------|-------------------------|
E |-------------------------|-------------------------|
B |-------------------------|-------------------------| x4
Gb |-------------------------|-------------------------|
Db |-------------------------|-------------------------|

Db ----|-------------------------|-----------------------|
Ab ----|-------------------------|-----------------------|
E ----|-9--9--9-----------------|-12-12-12--------------|
B ----|-9--9--9-----9--9--9-----|-12-12-12----9--9--9---|
Gb ----|-7--7--7-----9--9--9-----|-10-10-10----9--9--9---|
Db ----|-------------7--7--7-----|-------------7--7--7---|

Db ----|-------------------------|--------------------|
Ab ----|-------------------------|--------------------|
E -9--|-9--9-----11-11-11----12-|-12-12----16-16-16--|
B -9--|-9--9-----11-11-11----12-|-12-12----16-16-16--| x11
Gb -7--|-7--7-----9--9--9-----10-|-10-10----14-14-14--|
Db ----|-------------------------|--------------------|


Both Guitars end on:

Db |-------------------------|
Ab |-------------------------|
E |-------------------------|
B |-------------------------|
Gb |-------------------------|
Db |-0-----------------------|


-DRybes
Tunning: Standard (E A D G B e)
Queens Of The Stone Age
Little Sister
Tuning: Standard eBGDAE

Note: Props to DRybes for a great tab. I've just edited his and put it into standard
tuning for those who don't wanna tune down! Enjoy folks!

Carlson2000
-------------

[Intro]


Guitar 1:
e|-------------------------|--------------------|
B|-------------------------|--------------------|
G|-6--6-----------------9--|--9--9--------------|
D|-6--6-----6--6--6-----9--|--9--9----6--6--6---|
A|-4--4-----6--6--6-----7--|--7--7----6--6--6---|
E|----------4--4--4--------|----------4--4--4---|

e|----|-------------------------|--------------------|
B|----|-------------------------|--------------------|
G|-6--|-6--6-----------------9--|--9--9--------------|
D|-6--|-6--6-----6--6--6-----9--|--9--9----6--6--6---| x3
A|-4--|-4--4-----6--6--6-----7--|--7--7----6--6--6---|
E|----|----------4--4--4--------|----------4--4--4---|

Guitar 2:
e|----|-------------------------|--------------------|
B|----|-------------------------|--------------------|
G|----|-6--6------8--8--8----9--|--9--9----13-13-13--|
D|----|-6--6------8--8--8----9--|--9--9----13-13-13--|
A|----|-4--4------6--6--6----7--|--7--7----11-11-11--|
E|----|-------------------------|--------------------|

e|----|-------------------------|--------------------|
B|----|-------------------------|--------------------|
G|-6--|-6--6------8--8--8----9--|--9--9----13-13-13--|
D|-6--|-6--6------8--8--8----9--|--9--9----13-13-13--| x3
A|-4--|-4--4------6--6--6----7--|--7--7----11-11-11--|
E|----|-------------------------|--------------------|


[Verse 1]

Guitar 1:
e|-*--|-------------------------|--------------------| --|
B|----|-------------------------|--------------------| |
G|-6--|-6--6-----------------9--|--9--9--------------| |
D|-6--|-6--6-----6--6--6-----9--|--9--9----6--6--6---| x3 |
A|-4--|-4--4-----6--6--6-----7--|--7--7----6--6--6---| |
E|----|----------4--4--4--------|----------4--4--4---| |
|-- x2
e|----|-------------------------|-------------------------| |
B|----|-------------------------|-------------------------| |
G|----|-------------------------|-------------------------| |
D|-4--|-4--4-----4--4--4-----2--|-2--2-----2--2--2--1--0--| |
A|-4--|-4--4-----4--4--4-----2--|-2--2-----2--2--2--1--0--| |
E|-2--|-2--2-----2--2--2-----0--|-0--0-----0--0--0--x--x--| --|

Guitar 2:
e|-*--|-------------------------|--------------------| --|
B|----|-------------------------|--------------------| |
G|-6--|-6--6-----------------9--|--9--9----13-13-13--| |
D|-6--|-6--6-----6--6--6-----9--|--9--9----13-13-13--| x3 |
A|-4--|-4--4-----6--6--6-----7--|--7--7----11-11-11--| |
E|----|----------4--4--4--------|--------------------| |
|-- x2
e|----|-------------------------|-------------------------| |
B|----|-------------------------|-------------------------| |
G|-11-|--11-11----11-11-11---9--|--9--9----9--9--9--8--6--| |
D|-11-|--11-11----11-11-11---9--|--9--9----9--9--9--8--6--| |
A|--9-|---9--9-----9--9--9---7--|--7--7----7--7--7--6--4--| |
e|----|-------------------------|-------------------------| --|


[Chorus 1]

Guitar 1:
e|-------------------------|-------------------------| --|
B|-------------------------|-------------------------| |
G|-------------------------|-------------------------| |
D|-4--4--4--4--4--4--4--4--|-2--2--2--2--2--2--2--2--| |
A|-4--2--4--2--4--2--4--2--|-2--0--2--0--2--0--2--0--| |
E|-2--2--2--2--2--2--2--2--|-0--0--0--0--0--0--0--0--| |
|-- x3
e|-------------------------|-------------------------| |
B|-------------------------|-------------------------| |
G|-------------------------|-------------------------| |
D|-6--6--6--6--6--6--6--6--|-4--4--4--4--4--4--4--4--| |
A|-6--4--6--4--6--4--6--4--|-4--2--4--2--4--2--4--2--| |
E|-4--4--4--4--4--4--4--4--|-2--2--2--2--2--2--2--2--| --|

e|-------------------------|-------------------------|
B|-------------------------|-------------------------|
G|-------------------------|-------------------------|
D|-4--4--4--4--4--4--4--4--|-2--2--2--2--2--2--2--2--|
A|-4--2--4--2--4--2--4--2--|-2--0--2--0--2--0--2--0--|
E|-2--2--2--2--2--2--2--2--|-0--0--0--0--0--0--0--0--|

e|-------------------------|----------------------|
B|-------------------------|----------------------|
G|-------------------------|----------------------|
D|-6--6--6--6--6--6--6--6--|-6--6--6--6--6--6--6--|
A|-6--4--6--4--6--4--6--4--|-6--4--6--4--6--4--6--|
E|-4--4--4--4--4--4--4--4--|-4--4--4--4--4--4--4--|

Guitar 2:
e|-------------------------|-------------------------| --|
B|-------------------------|-------------------------| |
G|-11-11-11-11-11-11-11-11-|--9--9--9--9--9--9--9--9-| |
D|-11--9-11--9-11--9-11--9-|--9--7--9--7--9--7--9--7-| |
A|--9--9--9--9--9--9--9--9-|--7--7--7--7--7--7--7--7-| |
E|-------------------------|-------------------------| |
|-- x3
e|-------------------------|-------------------------| |
B|-------------------------|-------------------------| |
G|-13-13-13-13-13-13-13-13-|-11-11-11-11-11-11-11-11-| |
D|-13-11-13-11-13-11-13-11-|-11--9-11--9-11--9-11--9-| |
A|-11-11-11-11-11-11-11-11-|--9--9--9--9--9--9--9--9-| |
E|-------------------------|-------------------------| --|

e|-------------------------|-------------------------|
B|-------------------------|-------------------------|
G|-11-11-11-11-11-11-11-11-|--9--9--9--9--9--9--9--9-|
D|-11--9-11--9-11--9-11--9-|--9--7--9--7--9--7--9--7-|
A|--9--9--9--9--9--9--9--9-|--7--7--7--7--7--7--7--7-|
E|-------------------------|-------------------------|

e|-------------------------|-----------------------|
B|-------------------------|-----------------------|
G|-13-13-13-13-13-13-13-13-|-13-13-13-13-13-13-13--|
D|-13-11-13-11-13-11-13-11-|-13-11-13-11-13-11-13--|
A|-11-11-11-11-11-11-11-11-|-11-11-11-11-11-11-11--|
E|-------------------------|-----------------------|


[Interlude]

Guitar 1:
e|----|-------------------------|-------------------|
B|--12/14/12--------------------|-------------------|
G|----|----------11/13/11-----11/13/11--------------|
D|----|-------------------------|----------11/13/11-| x2
A|----|-------------------------|-------------------|
E|----|-------------------------|-------------------|

e|----|-------------------------|-----------------------|
B|----|-------------------------|-----------------------|
G|----|-6--6--6-----------------|--9--9--9--------------|
D|----|-6--6--6-----6--6--6-----|--9--9--9----6--6--6---|
A|----|-4--4--4-----6--6--6-----|--7--7--7----6--6--6---|
E|----|-------------4--4--4-----|-------------4--4--4---|

e|----|-------------------------|-------------------|
B|--12/14/12--------------------|-------------------|
G|----|----------11/13/11-----11/13/11--------------|
D|----|-------------------------|----------11/13/11-|
A|----|-------------------------|-------------------|
E|----|-------------------------|-------------------|

Guitar 2:
e|----|-------------------------|--------------------|
B|----|-------------------------|--------------------|
G|-6--|-6--6-----8--8--8-----9--|--9--9----13-13-13--|
D|-6--|-6--6-----8--8--8-----9--|--9--9----13-13-13--| x2
A|-4--|-4--4-----6--6--6-----7--|--7--7----11-11-11--|
E|----|-------------------------|--------------------|

e|----|-------------------------|----------------------|
B|----|-------------------------|----------------------|
G|----|-6--6--6------8--8--8----|-9--9--9----13-13-13--|
D|----|-6--6--6------8--8--8----|-9--9--9----13-13-13--|
A|----|-4--4--4------6--6--6----|-7--7--7----11-11-11--|
E|----|-------------------------|----------------------|

e|----|-------------------------|--------------------|
B|----|-------------------------|--------------------|
G|----|-6--6------8--8--8----9--|--9--9----13-13-13--|
D|----|-6--6------8--8--8----9--|--9--9----13-13-13--|
A|----|-4--4------6--6--6----7--|--7--7----11-11-11--|
E|----|-------------------------|--------------------|


[Verse 2]

Same as Verse 1 but without the first chord (*).


[Chorus 2]

Same as Chorus 1.


[Solo]

Guitar 1:
e|-----------------------------|-----------------------------|
B|12/14/12---------------------|-----------------------------|
G|-------------11/13/11--------|11/13/11---------------------|
D|-----------------------------|-------------11/13/11--------| x2
A|-----------------------------|-----------------------------|
E|-----------------------------|-----------------------------|

e|-----------------------------|-----------------------------|
B|12h14p12-----14h16p14--------|14h16h17-----16p14p13--------|
G|-----------------------------|-----------------------------|
D|-----------------------------|-----------------------------| x2
A|-----------------------------|-----------------------------|
E|-----------------------------|-----------------------------|

e|-----------------------------|-------------15b16--------16-|
B|-14-14-14----16-16-16--------|17-17-17---------------------|
G|-----------------------------|-----------------------------|
D|-----------------------------|-----------------------------|
A|-----------------------------|-----------------------------|
E|-----------------------------|-----------------------------|

e|-16--16----14b--14--14----12h14p12-------------------------|
B|-----------------------------|-------16p14p13--------------|
G|-----------------------------|-----------------------------|
D|-----------------------------|-----------------------------|
A|-----------------------------|-----------------------------|
E|-----------------------------|-----------------------------|

e|-----------------------------|-----------------------------|
B|-12--14--------------------12h14---------------------------|
G|---------13------------------|---13-11-13----11-13---------|
D|-----------------------------|--------------------------13-|
A|-----------------------------|---------------------11s14---|
E|-----------------------------|-----------------------------|

e|-----------------------------|-----------------------------|
B|-----------------------------|-----------------------------|
G|-11h13-----------------------|-------------11h13-----------|
D|-------13s11-----------------|------------------13p11p9h13-|
A|-------------11------9h11-11-|--9h11p9h11------------------|
E|-----------------------------|-----------------------------|

e|-----------------------------|-----------------------------|
B|-----------------------------|-----------------------------|
G|-----------------------------|-----------------------------|
G|---11-------13-11--13-11-----|-13---11---13---10-----------|
A|-----------------------------|-----------------------------|
E|-----------------------------|-----------------------------|

e|-----------------------------|-------9--9------------------|
B|-----------------9-----------|----9---------12h14-----13---|
G|------------9----------------|-9------------------13-------|
D|--9--h11-----------------9h11|-----------------------------|
A|-----------------------------|-----------------------------|
E|-----------------------------|-----------------------------|

e|-----------------------------|--------s16------------------|
B|-12--14--12--14s16--14---12--|-14------------13------------|
G|-----------------------------|-----13----------------------|
D|-----------------------------|-----------------------------|
A|-----------------------------|-----------------------------|
E|-----------------------------|-----------------------------|

e|-----------------------------|--------14--14--14-----------|
B|-12--14--12h14s16---14h16h17-|--16h17----------------------|
G|-----------------------------|-----------------------------|
D|-----------------------------|-----------------------------|
A|-----------------------------|-----------------------------|
E|-----------------------------|-----------------------------|

e|-14h16-16-16---14h16-16-16---|-12h14-14-14---11------------|
B|-----------------------------|-----------------------------|
G|-----------------------------|-----------------------------|
D|-----------------------------|-----------------------------|
A|-----------------------------|-----------------------------|
E|-----------------------------|-----------------------------|

e|-----16----16-----16----16---|-----19----(19)---16----(16)-|
B|--14----14-----16----16------|--17----17-----13----13------|
G|-----------------------------|-----------------------------|
D|-----------------------------|-----------------------------| x4
A|-----------------------------|-----------------------------|
E|-----------------------------|-----------------------------|

Guitar 2:
e|-------------------------|-------------------------|
B|-------------------------|-------------------------|
G|-------------------------|-------------------------|
D|-------------------------|-------------------------| x4
A|-------------------------|-------------------------|
E|-------------------------|-------------------------|

e|----|-------------------------|-----------------------|
B|----|-------------------------|-----------------------|
G|----|-6--6--6-----------------|--9--9--9--------------|
D|----|-6--6--6-----6--6--6-----|--9--9--9----6--6--6---|
A|----|-4--4--4-----6--6--6-----|--7--7--7----6--6--6---|
E|----|-------------4--4--4-----|-------------4--4--4---|

e|----|-------------------------|--------------------|
B|----|-------------------------|--------------------|
G|-6--|-6--6-----8--8--8-----9--|-9--9-----13-13-13--|
D|-6--|-6--6-----8--8--8-----9--|-9--9-----13-13-13--| x11
A|-4--|-4--4-----6--6--6-----7--|-7--7-----11-11-11--|
E|----|-------------------------|--------------------|

Both Guitars [end] on:

e|---|
B|---|
G|-6-|
A|-6-|
D|-4-|
E|---|



************************************

| x Dead note
| (n) Ghost note
| h Hammer-on
| p Pull-off
| b Bend
| / Slide up
| s Slap

************************************
Tunning: Standard (E A D G B e)
[Intro]
e|-------------------------------------------------------------|
B|-------------------------------------------------------------|
G|-------------------------------------------------------------|
D|-------------------------------------------------13-13-13----|
A|---------11-11----11-11-11-----14-14-14----------11-11-11----|
E|---------9--9-----11-11-11-----12-12-12----------------------|

e|-------------------------------------------------------------|
B|-------------------------------------------------------------| (3x)
G|-------------------------------------------------------------|
D|-------------------------------------------------13-13-13----|
A|-----11-11-11----11-11-11-----14-14-14-----------11-11-11----|
E|-----9--9--9-----11-11-11-----12-12-12-----------------------|

[Verse 1]
e|-------------------------------------------------------------|
B|-------------------------------------------------------------|
G|-------------------------------------------------------------|
D|-------------------------------------------------13-13-13----|
A|-----11-11-11----11-11-11-----14-14-14-----------11-11-11----|
E|-----9--9--9-----11-11-11-----12-12-12-----------------------|

e|-------------------------------------------------------------|
B|-------------------------------------------------------------|
G|-------------------------------------------------------------|
D|-------------------------------------------------13-13-13----|
A|-----11-11-11----11-11-11-----14-14-14-----------11-11-11----|
E|-----9--9--9-----11-11-11-----12-12-12-----------------------|

e|-------------------------------------------------------------|
B|-------------------------------------------------------------|
G|-------------------------------------------------------------|
D|-------------------------------------------------13-13-13----|
A|-----11-11-11----11-11-11-----14-14-14-----------11-11-11----|
E|-----9--9--9-----11-11-11-----12-12-12-----------------------|

e|-------------------------------------------------------------|
B|-------------------------------------------------------------|
G|-------------------------------------------------------------|
D|---11-11-11---11-11-11---------------------------------------|
A|---9--9--9----9--9--9----14-14-14--14-14\13----13\11---------|
E|-------------------------12-12-12--12-12\11----11\9----------|

[Chorus]
e|-------------------------------------------------------------|
B|-------------------------------------------------------------|
G|-------------------------------------------------------------|
D|--11-9--11-9--11-9--11-9--11---------------------------------|
A|--9--9--9--9--9--9--9--9--9---14-12-14-12-14-12-14-12--------|
E|------------------------------12-12-12-14-12-12-12-12--------|

e|-------------------------------------------------------------|
B|-------------------------------------------------------------|
G|-------------------------------------------------------------|
D|--13-11-13-11-13-11-13-11--11-9--11-9-11--9--11-9------------|
A|--11-11-11-11-11-11-11-11--9--9--9--9--9--9--9--9------------|
E|-------------------------------------------------------------|

e|-------------------------------------------------------------|
B|-------------------------------------------------------------|
G|-------------------------------------------------------------|
D|--11-9--11-9--11-9--11-9--11---------------------------------|
A|--9--9--9--9--9--9--9--9--9---14-12-14-12-14-12-14-12--------|
E|------------------------------12-12-12-14-12-12-12-12--------|

e|-------------------------------------------------------------|
B|-------------------------------------------------------------|
G|-------------------------------------------------------------|
D|--13-11-13-11-13-11-13-11--11-9--11-9-11--9--11-9------------|
A|--11-11-11-11-11-11-11-11--9--9--9--9--9--9--9--9------------|
E|-------------------------------------------------------------|

[Solo 1]
(FX: Matchless Hotbox + Klon Centaur)
e|-------------------------------------------------------------|
B|--12/14\12---------------------------------------------------|
G|--------------11/13\11--------11/13\11-----------------------|
D|------------------------------------------11/13\11-----------|
A|-------------------------------------------------------------|
E|-------------------------------------------------------------| (2x)

e|-------------------------------------------------------------|
B|-------------------------------------------------------------|
G|-------------------------------------------------------------|
D|-------------------------------------------------13-13-13----|
A|-----11-11-11----11-11-11-----14-14-14-----------11-11-11----|
E|-----9--9--9-----11-11-11-----12-12-12-----------------------|

e|-------------------------------------------------------------|
B|--12/14\12---------------------------------------------------|
G|--------------11/13\11--------11/13\11-----------------------|
D|------------------------------------------11/13\11-----------|
A|-------------------------------------------------------------|
E|-------------------------------------------------------------|

[Solo 2]
(FX: Matchless Hotbox + Klon Centaur):
e|-------------------------------------------------------------|
B|--12/14\12---------------------------------------------------|
G|--------------11/13\11--------11/13\11-----------------------|
D|------------------------------------------11/13\11-----------|
A|-------------------------------------------------------------|
E|-------------------------------------------------------------| (2x)

e|-------------------------------------------------------------|
B|-----12/14\12----14/16\14--------14/16\17----16/14\13--------|
G|-------------------------------------------------------------|
D|-------------------------------------------------------------|
A|-------------------------------------------------------------|
E|-------------------------------------------------------------| (2x)

e|-------------------------------------------------------------|
B|------14-14-14----16-16-16---------17-17-17------------------|
G|-------------------------------------------------------------|
D|-------------------------------------------------------------|
A|-------------------------------------------------------------|
E|-------------------------------------------------------------|

e|15b---16-16-16----14b-14-14----12h14p12----------------------|
B|-------------------------------------------16h14h13~---------|
G|-------------------------------------------------------------|
D|-------------------------------------------------------------|
A|-------------------------------------------------------------|
E|-------------------------------------------------------------|

e|-------------------------------------------------------------|
B|------12-14-------12h-14-------------------------------------|
G|--13b--------13~---------13------13--11--13--11--13----------|
D|----------------------------------------------------------13-|
A|----------------------------------------------------11s14----|
E|-------------------------------------------------------------|

e|-------------------------------------------------------------|
B|-------------------------------------------------------------|
G|--11h13-----------------------------11h---13-----------------|
D|--------13s11-----------------------------------13h11h9h-11--|
A|--------------9h11-11--9h11---9h11---------------------------|
E|-------------------------------------------------------------|

e|-------------------------------------------------------------|
B|-------------------------------------------------------------|
G|-------------------------------------------------------------|
D|--11~---11-13-11-13-11b-11------13-11-13-10~-----------------|
A|-------------------------------------------------------------|
E|-------------------------------------------------------------|

e|-------------------------------9--9--------------------------|
B|-------------9---------------9--------12-14----13------------|
G|-----------9---------------9-----------------13--------------|
D|--9-9/--11----------9/-11------------------------------------|
A|-------------------------------------------------------------|
E|-------------------------------------------------------------|

e|------------------------------/16----------------------------|
B|--12-14-12-14/16-14-16/17--14-----14-------------------------|
G|-------------------------------------------------------------|
D|-------------------------------------------------------------|
A|-------------------------------------------------------------|
E|-------------------------------------------------------------|

e|----------------------------------14-14-14------------14-14--|
B|--12-14-12-14/16-14-16/17--16/17-----------------------------|
G|-------------------------------------------------------------|
D|-------------------------------------------------------------|
A|-------------------------------------------------------------|
E|-------------------------------------------------------------|

e|--14/16-16-16-14/16-16-16----------12/14-14-14-11------------|
B|-------------------------------------------------------------|
G|-------------------------------------------------------------|
D|-------------------------------------------------------------|
A|-------------------------------------------------------------|
E|-------------------------------------------------------------|

e|-----16----16----16----16-----19----19----16----16-----------|
B|--14----14----16----16-----17----17----13----13--------------|
G|-------------------------------------------------------------|
D|-------------------------------------------------------------|
A|-------------------------------------------------------------|
E|-------------------------------------------------------------| (4x)


************************************

| \ Slide down
| / Slide up
| h Hammer-on
| p Pull-off
| b Bend
| ~ Vibrato

************************************
Song info
Little Sister
Queens of the Stone Age
2001
  • Rock
  • Alternative Rock
Alternative tracks
Similar songs
gratitude - Gratitude
Wheels - Foo Fighters
Pressure - Muse

Hi! Hope you enjoy backing track experience.
If you want to help us in the development of the project, feel free to donate!