Cherry Bomb - Runaways
00:00 / 00:00
Tabs and lyrics
Tunning: Standard (E A D G B e)
Cherry Bomb - The Runaways


[Intro/Verse 1]

e|--------|
b|--------|
g|-----7--|
d|--9--7--|
a|--9--5--|
E|--7-----|
Pm .


[Chorus 1]

e|--------------|
b|--------------|
g|-----------9--|
d|--4--7--9--9--|
a|--4--7--9--7--|
E|--2--5--7-----|
Pm .


[Verse 2]

e|---------|
b|---------|
g|------9--|
d|--11--9--|
a|--11--7--|
E|---9-----|
Pm .


[Chorus 2]

e|----------------|
b|----------------|
g|------------11--|
d|--6--9--11--11--|
a|--6--9--11---9--|
E|--4--7---9------|
Pm .


[Outro]

e|----------|
b|----------|
g|------11--|
d|--11--11--|
a|--11---9--|
E|---9------|
Pm .
Tunning: Standard (E A D G B e)
Listen to the song, to play it right.

Verse 1
e|---------------------------------------------|
B|---------------------------------------------|
G|-------------------------------------------7-| 3x
D|-9-9-9-9-9-9-9-9-9-9-9-9-9-9-9-9-9-9-9-9-9-7-|
A|-9-9-9-9-9-9-9-9-9-9-9-9-9-9-9-9-9-9-9-9-9-5-|
E|-7-7-7-7-7-7-7-7-7-7-7-7-7-7-7-7-7-7-7-7-7---|
the whole verse is that, expept on the last word of the verse you don't play D (x755xx)

Chorus
e|---------------------------------------------|
B|---------------------------------------------|
G|-------------------------------------9-------| 2x
D|-4-4-4-4-4-4-7-7-7-7-7-7-9-9-9-9-9-9-9-9-9-9-|
A|-4-4-4-4-4-4-7-7-7-7-7-7-9-9-9-9-9-9-7-9-9-9-|
E|-2-2-2-2-2-2-5-5-5-5-5-5-7-7-7-7-7-7---7-7-7-|

Verse 2 is the same than Verse 1

Chorus

Solo
e|---------------------------------------------|
B|---------------------------------------------|
G|---------------------------------------------|
D|-9-9-9-9-9-9-9-9-9-9-9-9-9-9-9-9-9-9-9-9-9-9-|
A|-9-9-9-9-9-9-9-9-9-9-9-9-9-9-9-9-9-9-9-9-9-9-|
E|-7-7-7-7-7-7-7-7-7-7-7-7-7-7-7-7-7-7-7-7-7-7-|

Chorus

Verse 3 changes higher
e|---------------------------------------------|
B|---------------------------------------------|
G|-------------------------------------------9-| 3x
D|-11-11-11-11-11-11-11-11-11-11-11-11-11-11-9-|
A|-11-11-11-11-11-11-11-11-11-11-11-11-11-11-7-|
E|--9--9--9--9--9--9--9--9--9--9--9--9--9--9---|

Chorus changes higher too
e|----------------------------------------------|
B|----------------------------------------------|
G|-------------------------------------------11-|
D|-6-6-6-6-6-6-9-9-9-9-9-9-11-11-11-11-11-11-11-|
A|-6-6-6-6-6-6-9-9-9-9-9-9-11-11-11-11-11-11--9-|
E|-4-4-4-4-4-4-7-7-7-7-7-7--9--9--9--9--9--9----|

Song info
Cherry Bomb
Runaways
2001
  • Rock
  • Hard Rock
Similar songs
Child In Time - Deep Purple
Wicked World - Black Sabbath
So This Is Love - Van Halen

Hi! Hope you enjoy backing track experience.
If you want to help us in the development of the project, feel free to donate!