Distant Early Warning - Rush
00:00 / 00:00
Tabs and lyrics
Tunning: Nashville (E A D G B E)
Track 1
W W H Q E E
E||--3----------------|--(3)----------------|--(3)--------(3)----(3)--3--|
B||--3----------------|--(3)----------------|--(3)--------(3)----(3)--3--|
G||--5----------------|--(5)----------------|--(5)--------(5)----(5)--5--|
D||--5----------------|--(5)----------------|--(5)--------(5)----(5)--5--|
A||--0----------------|--(0)----------------|--(0)--------(0)----(0)--3--|
E||-------------------|---------------------|----------------------------|


W H Q E E W
--L----------------|--(3)--------(3)----(3)--10--|--L----------------|
--L----------------|--(3)--------(3)----(3)--10--|--L----------------|
--L----------------|--(5)--------(5)----(5)--12--|--L----------------|
--L----------------|--(5)--------(5)----(5)--12--|--L----------------|
--L----------------|--(3)--------(3)----(3)--10--|--L----------------|
-------------------|-----------------------------|-------------------|


H Q E E W E E E E E E E E
--(10)--------(10)----(10)--3--|--L----------------|-----------------------3--|
--(10)--------(10)----(12)--3--|--L----------------|-----------------------3--|
--(12)--------(12)----(12)--5--|--L----------------|-----------------------5--|
--(12)--------(12)----(12)--5--|--L----------------|--------5--------------5--|
--(10)--------(10)----(10)--0--|--L----------------|--3--3--3--3--3--3--3--3--|
-------------------------------|-------------------|--------------------------|


W E E E E E E E E W
--L----------------|------------------------------10--|---L----------------|
--L----------------|------------------------------10--|---L----------------|
--L----------------|------------------------------12--|---L----------------|
--L----------------|----------12------------------12--|---L----------------|
--L----------------|--10--10--10--10--10--10--10--10--|---L----------------|
-------------------|----------------------------------|--------------------|


E E E E E E E E W Q Q Q.
-----------------------5--|--L----------------|--5----5----5------|
-----------------------8--|--L----------------|--8----7----5------|
-----------------------5--|--L----------------|--5----5----5------|
--------7--------------7--|--L----------------|--7----7----7------|
--0--0--0--0--0--0--0--0--|--L----------------|-------------------|
--------------------------|-------------------|-------------------|


Q Q Q. Q Q Q. Q Q Q.
--5----5----5------|--5----5----5------|--5----5----5------|
--8----7----5------|--8----7----5------|--8----7----5------|
--5----5----5------|--5----5----5------|--5----5----5------|
--7----7----7------|--7----7----7------|--7----7----7------|
-------------------|-------------------|-------------------|
-------------------|-------------------|-------------------|


E E E Q E E E E E Q E E E Q
--1--(1)--(1)--3----|--1--(1)--(1)--3-----3----|--1--(1)--(1)--3----|
--1--(1)--(1)--3----|--1--(1)--(1)--3-----3----|--1--(1)--(1)--3----|
--2--(2)--(2)--4----|--2--(2)--(2)--4-----4----|--2--(2)--(2)--4----|
--3--(3)--(3)--5----|--3--(3)--(3)--5-----5----|--3--(3)--(3)--5----|
--3--(3)--(3)--5----|--3--(3)--(3)--5-----5----|--3--(3)--(3)--5----|
--1--(1)--(1)--3----|--1--(1)--(1)--3-----3----|--1--(1)--(1)--3----|


E E E E E Q W W
--1--(1)--(1)--3-----3----|--3----------------|--(3)----------------|
--1--(1)--(1)--3-----3----|--3----------------|--(3)----------------|
--2--(2)--(2)--4-----4----|--5----------------|--(5)----------------|
--3--(3)--(3)--5-----5----|--5----------------|--(5)----------------|
--3--(3)--(3)--5-----5----|--0----------------|--(0)----------------|
--1--(1)--(1)--3-----3----|-------------------|---------------------|


H Q E E W H Q E E
--(3)--------(3)----(3)--3--|--(3)----------------|--(3)--------L----L--10--|
--(3)--------(3)----(3)--3--|--(3)----------------|--(3)--------L----L--10--|
--(5)--------(5)----(5)--5--|--(5)----------------|--(5)--------L----L--12--|
--(5)--------(5)----(5)--5--|--(5)----------------|--(5)--------L----L--12--|
--(0)--------(0)----(0)--3--|--(3)----------------|--(3)--------L----L--10--|
----------------------------|---------------------|-------------------------|


W H Q E E W
--(10)----------------|--L--------L----L--3--|--(3)----------------|
--(10)----------------|--L--------L----L--3--|--(3)----------------|
--(12)----------------|--L--------L----L--5--|--(5)----------------|
--(12)----------------|--L--------L----L--5--|--(5)----------------|
--(10)----------------|--L--------L----L--0--|--(0)----------------|
----------------------|----------------------|---------------------|

H Q E E W E E E E E E E E
--L--------L----L--7--|--(7)----------------|-----------------------3--|
--L--------L----L--8--|--(8)----------------|-----------------------3--|
--L--------L----L--7--|--(7)----------------|--------------5--5--5--5--|
--L--------L----L--9--|--(9)----------------|--------5--5-----------5--|
--L--------L----L-----|---------------------|--0--0--------------------|
----------------------|---------------------|--------------------------|


Q E E E E Q E E E E E E E E
--(3)----(3)-----------3----|-----------------------3--|
--(3)----(3)----------------|-----------------------3--|
--(5)----(5)-----5--5-------|--------------5--5-----5--|
--(5)-----5---5-------------|--------5--5--------5-----|
----------------------------|--3--3--------------------|
----------------------------|--------------------------|


E E E E E E Q E E E E E E E E
--(3)----------------------|------------------------------10--|
--(3)--3--3--3--------3----|------------------------------10--|
--(5)-----------5--5-------|------------------12--12------12--|
---------------------------|----------12--12----------12--12--|
---------------------------|--10--10--------------------------|
---------------------------|----------------------------------|


E E E E E E Q E E E E E E E E
--(10)----------------------------|-----------------------5--|
--(10)------10--10----------10----|-----------------------8--|
--(12)--12----------12------------|--------------5--5-----5--|
--(12)------------------12--------|--------5--5--------5-----|
----------------------------------|--0--0--------------------|
----------------------------------|--------------------------|


E E E E E E Q Q Q Q. Q Q Q.
--(5)--(5)--------5----------|--5----5----5------|--5----5----5------|
--(8)--(8)--8-----------8----|--8----7----5------|--8----7----5------|
--(5)---5------5-----5-------|--5----5----5------|--5----5----5------|
-----------------------------|--7----7----7------|--7----7----7------|
-----------------------------|-------------------|-------------------|
-----------------------------|-------------------|-------------------|

Q Q Q. Q Q Q. E E E Q
--5----5----5------|--5----5----5------|--1--(1)--(1)--3----|
--8----7----5------|--8----7----5------|--1--(1)--(1)--3----|
--5----5----5------|--5----5----5------|--2--(2)--(2)--4----|
--7----7----7------|--7----7----7------|--3--(3)--(3)--5----|
-------------------|-------------------|--3--(3)--(3)--5----|
-------------------|-------------------|--1--(1)--(1)--3----|

E E E E E Q E E E Q E E E E E Q
--1--(1)--(1)--3-----3----|--1--(1)--(1)--3----|--1--(1)--(1)--3-----3----|
--1--(1)--(1)--3-----3----|--1--(1)--(1)--3----|--1--(1)--(1)--3-----3----|
--2--(2)--(2)--4-----4----|--2--(2)--(2)--4----|--2--(2)--(2)--4-----4----|
--3--(3)--(3)--5-----5----|--3--(3)--(3)--5----|--3--(3)--(3)--5-----5----|
--3--(3)--(3)--5-----5----|--3--(3)--(3)--5----|--3--(3)--(3)--5-----5----|
--1--(1)--(1)--3-----3----|--1--(1)--(1)--3----|--1--(1)--(1)--3-----3----|


E E E E E Q E E E E E E Q E E E E E E E E E
-----------------5-------|-------------------------|-----------5-----------1--|
--6--------------6----5--|--L--------------5----6--|--L--6--------6--5--6--1--|
--7--7--7--7--7--7----5--|--L--5--5--5--5--5----7--|--L-----7--------------2--|
--7--7--7--7--7-------5--|--L--5--5--5--5--5----7--|--L--------------------3--|
--5--5--5--5--5-------3--|--L--3--3--3--3-------5--|--L--------------------3--|
-------------------------|-------------------------|-----------------------1--|


Q. H E E E E E E Q E E E E E E Q E
--L------3-----------|-----------------5-------|----------------------5--|
--L------3--------6--|--L--------------6----5--|--L--------------5----6--|
--L------4--------7--|--L--7--7--7--7--7----5--|--L--5--5--5--5--5----7--|
--L------5--------7--|--L--7--7--7--7-------5--|--L--5--5--5--5--5----7--|
--L------5--------5--|--L--5--5--5--5-------3--|--L--3--3--3--3-------5--|
--L------3-----------|-------------------------|-------------------------|


E E E E Q. E Q. H E E E E E E Q E
--L-----------5------1--|--L------3--------5--|-----------------5-------|
--L--------6---------1--|--L------3--------6--|--6--------------6----5--|
--L-----7------------2--|--L------4--------7--|--7--7--7--7--7--7----5--|
--L--7---------------3--|--L------5--------7--|--7--7--7--7--7-------5--|
--L------------------3--|--L------5--------5--|--5--5--5--5--5-------3--|
---------------------1--|--L------3-----------|-------------------------|


E E E E E Q E E E E E E E E E Q. H E
-------------------------|-----------5-----------1--|--L------3-----------|
--L--------------5----6--|--L--6--------6--5--6--1--|--L------3--------6--|
--L--5--5--5--5--5----7--|--L-----7--------------2--|--L------4--------7--|
--L--5--5--5--5--5----7--|--L--------------------3--|--L------5--------7--|
--L--3--3--3--3-------5--|--L--------------------3--|--L------5--------5--|
-------------------------|-----------------------1--|--L------3-----------|


E E E E E Q E E E E E E Q E E E E E Q. E
-----------------5-------|----------------------5--|--L-----------5------1--|
--L--------------6----5--|--L--------------5----6--|--L--------6---------1--|
--L--7--7--7--7--7----5--|--L--5--5--5--5--5----7--|--L-----7------------2--|
--L--7--7--7--7-------5--|--L--5--5--5--5--5----7--|--L--7---------------3--|
--L--5--5--5--5-------3--|--L--3--3--3--3-------5--|--L------------------3--|
-------------------------|-------------------------|---------------------1--|


Q. H E W W
--L------3--------5--|--L----------------|--L----------------|
--L------3--------8--|--L----------------|--L----------------|
--L------4--------5--|--L----------------|--L----------------|
--L------5--------5--|--L----------------|--L----------------|
--L------5-----------|-------------------|-------------------|
--L------3-----------|-------------------|-------------------|


H. E E W H. E E
--L------------L--3--|--L----------------|--L------------L--10--|
--L------------L--3--|--L----------------|--L------------L--10--|
--L------------L--5--|--L----------------|--L------------L--12--|
--L------------L--5--|--L----------------|--L------------L--12--|
------------------3--|--L----------------|--L------------L--10--|
---------------------|-------------------|----------------------|


W W W
--L----------------|--3----------------|--(3)----------------|
--L----------------|--3----------------|--(3)----------------|
--L----------------|--5----------------|--(5)----------------|
--L----------------|--5----------------|--(5)----------------|
--L----------------|--0----------------|--(0)----------------|
-------------------|-------------------|---------------------|


H Q E E W H Q E E
--(3)--------(3)----(3)--3--|--(3)----------------|--(3)--------L----L--10--|
--(3)--------(3)----(3)--3--|--(3)----------------|--(3)--------L----L--10--|
--(5)--------(5)----(5)--5--|--(5)----------------|--(5)--------L----L--12--|
--(5)--------(5)----(5)--5--|--(5)----------------|--(5)--------L----L--12--|
--(0)--------(0)----(0)--3--|--(3)----------------|--(3)--------L----L--10--|
----------------------------|---------------------|-------------------------|

W H Q E E W
--(10)----------------|--L--------L----L--3--|--(3)----------------|
--(10)----------------|--L--------L----L--3--|--(3)----------------|
--(12)----------------|--L--------L----L--5--|--(5)----------------|
--(12)----------------|--L--------L----L--5--|--(5)----------------|
--(10)----------------|--L--------L----L--0--|--(0)----------------|
----------------------|----------------------|---------------------|

H Q E E W E E E E E E E E
--L--------L----L--7--|--(7)----------------|-----------------------3--|
--L--------L----L--8--|--(8)----------------|-----------------------3--|
--L--------L----L--7--|--(7)----------------|--------------5--5--5--5--|
--L--------L----L--9--|--(9)----------------|--------5--5-----------5--|
--L--------L----L-----|---------------------|--0--0--------------------|
----------------------|---------------------|--------------------------|


Q E E E E Q E E E E E E E E
--(3)----(3)-----------3----|-----------------------3--|
--(3)----(3)----------------|-----------------------3--|
--(5)----(5)-----5--5-------|--------------5--5-----5--|
--(5)-----5---5-------------|--------5--5--------5-----|
----------------------------|--3--3--------------------|
----------------------------|--------------------------|


E E E E E E Q E E E E E E E E
--(3)----------------------|------------------------------10--|
--(3)--3--3--3--------3----|------------------------------10--|
--(5)-----------5--5-------|------------------12--12------12--|
---------------------------|----------12--12----------12--12--|
---------------------------|--10--10--------------------------|
---------------------------|----------------------------------|


E E E E E E Q E E E E E E E E
--(10)----------------------------|-----------------------5--|
--(10)------10--10----------10----|-----------------------8--|
--(12)--12----------12------------|--------------5--5-----5--|
--(12)------------------12--------|--------5--5--------5-----|
----------------------------------|--0--0--------------------|
----------------------------------|--------------------------|


E E E E E E Q Q Q Q. Q Q Q.
--(5)--(5)--------5----------|--5----5----5------|--5----5----5------|
--(8)--(8)--8-----------8----|--8----7----5------|--8----7----5------|
--(5)---5------5-----5-------|--5----5----5------|--5----5----5------|
-----------------------------|--7----7----7------|--7----7----7------|
-----------------------------|-------------------|-------------------|
-----------------------------|-------------------|-------------------|


Q Q Q. Q Q Q. E E E Q
--5----5----5------|--5----5----5------|--1--(1)--(1)--3----|
--8----7----5------|--8----7----5------|--1--(1)--(1)--3----|
--5----5----5------|--5----5----5------|--2--(2)--(2)--4----|
--7----7----7------|--7----7----7------|--3--(3)--(3)--5----|
-------------------|-------------------|--3--(3)--(3)--5----|
-------------------|-------------------|--1--(1)--(1)--3----|


E E E E E Q E E E Q E E E E E Q
--1--(1)--(1)--3-----3----|--1--(1)--(1)--3----|--1--(1)--(1)--3-----3----|
--1--(1)--(1)--3-----3----|--1--(1)--(1)--3----|--1--(1)--(1)--3-----3----|
--2--(2)--(2)--4-----4----|--2--(2)--(2)--4----|--2--(2)--(2)--4-----4----|
--3--(3)--(3)--5-----5----|--3--(3)--(3)--5----|--3--(3)--(3)--5-----5----|
--3--(3)--(3)--5-----5----|--3--(3)--(3)--5----|--3--(3)--(3)--5-----5----|
--1--(1)--(1)--3-----3----|--1--(1)--(1)--3----|--1--(1)--(1)--3-----3----|


E E E E E Q E E E E E E Q E E E E E E E E E
-----------------5-------|-------------------------|-----------5-----------1--|
--6--------------6----5--|--L--------------5----6--|--L--6--------6--5--6--1--|
--7--7--7--7--7--7----5--|--L--5--5--5--5--5----7--|--L-----7--------------2--|
--7--7--7--7--7-------5--|--L--5--5--5--5--5----7--|--L--------------------3--|
--5--5--5--5--5-------3--|--L--3--3--3--3-------5--|--L--------------------3--|
-------------------------|-------------------------|-----------------------1--|


Q. H E E E E E E Q E E E E E E Q E
--L------3-----------|-----------------5-------|----------------------5--|
--L------3--------6--|--L--------------6----5--|--L--------------5----6--|
--L------4--------7--|--L--7--7--7--7--7----5--|--L--5--5--5--5--5----7--|
--L------5--------7--|--L--7--7--7--7-------5--|--L--5--5--5--5--5----7--|
--L------5--------5--|--L--5--5--5--5-------3--|--L--3--3--3--3-------5--|
--L------3-----------|-------------------------|-------------------------|


E E E E Q. E Q. H E E E E E E Q E
--L-----------5------1--|--L------3--------5--|-----------------5-------|
--L--------6---------1--|--L------3--------6--|--6--------------6----5--|
--L-----7------------2--|--L------4--------7--|--7--7--7--7--7--7----5--|
--L--7---------------3--|--L------5--------7--|--7--7--7--7--7-------5--|
--L------------------3--|--L------5--------5--|--5--5--5--5--5-------3--|
---------------------1--|--L------3-----------|-------------------------|


E E E E E Q E E E E E E E E E Q. H E
-------------------------|-----------5-----------1--|--L------3-----------|
--L--------------5----6--|--L--6--------6--5--6--1--|--L------3--------6--|
--L--5--5--5--5--5----7--|--L-----7--------------2--|--L------4--------7--|
--L--5--5--5--5--5----7--|--L--------------------3--|--L------5--------7--|
--L--3--3--3--3-------5--|--L--------------------3--|--L------5--------5--|
-------------------------|-----------------------1--|--L------3-----------|


E E E E E Q E E E E E E Q E E E E E Q. E
-----------------5-------|----------------------5--|--L-----------5------1--|
--L--------------6----5--|--L--------------5----6--|--L--------6---------1--|
--L--7--7--7--7--7----5--|--L--5--5--5--5--5----7--|--L-----7------------2--|
--L--7--7--7--7-------5--|--L--5--5--5--5--5----7--|--L--7---------------3--|
--L--5--5--5--5-------3--|--L--3--3--3--3-------5--|--L------------------3--|
-------------------------|-------------------------|---------------------1--|


Q. H E E E E E Q E E E E E E Q E E
--L------3-----------|--------5-----5----5-----|-------------------------|
--L------3-----------|-----------6-------------|--------5-----5----5-----|
--L------4--------7--|--L--7----------------5--|--L--5-----5----------7--|
--L------5--------7--|--L-------------------5--|--L-------------------7--|
--L------5--------5--|--L-------------------3--|--L-------------------5--|
--L------3-----------|-------------------------|-------------------------|


E E E E Q E E Q. H E E E E E Q E E
-----------------------8--|--L------5-----------|--------5-----5----5-----|
--------6-----6----6---8--|--L------8-----------|-----------6-------------|
--L--7-----7----------10--|--L------5--------7--|--L--7----------------5--|
--L-------------------10--|--L------7--------7--|--L-------------------5--|
--L--------------------8--|--L---------------5--|--L-------------------3--|
--------------------------|---------------------|-------------------------|


E E E E Q E E E E E E Q E E Q. E H
-------------------------|-----------------------8--|--L------5--L--------|
--------5-----5----5-----|--------6-----6----6---8--|--L------8--L--------|
--L--5-----5----------7--|--L--7-----7----------10--|--L------5--L--------|
--L-------------------7--|--L-------------------10--|--L------7--L--------|
--L-------------------5--|--L--------------------8--|--L------------------|
-------------------------|--------------------------|---------------------|


Q Q E E Q Q Q E E Q Q E. S E E Q
--5---------------------|--5---------------------|--5----------------------|
-------8----6--5--------|-------8----6--5--------|-------8---6-6--5--------|
------------------7~----|------------------7~----|-------------------7~----|
------------------------|------------------------|-------------------------|
------------------------|------------------------|-------------------------|
------------------------|------------------------|-------------------------|


Q Q E E Q E S S E S S E E E E
--5---------------------|--13--12-12-12------------------------|
-------8----6--5--------|----------------15-15-15--13--12------|
------------------7/----|----------------------------------14--|
------------------------|--------------------------------------|
------------------------|--------------------------------------|
------------------------|--------------------------------------|


E S S E S S E E E E E S S E S S E E E E
--13--12-12-12------------------------|--13--12-12-12------------------------|
----------------15-15-15--13--12------|----------------15-15-15--13--12------|
----------------------------------14--|----------------------------------14--|
--------------------------------------|--------------------------------------|
--------------------------------------|--------------------------------------|
--------------------------------------|--------------------------------------|


E S S E S S E E E E E E E E E E E E
--13--12-12-12-----------------------|-----------------5--------|
----------------15-15-15--13--12--5--|--L-----------------8-----|
----------------------------------5--|--L--5--5--5--5--------5--|
-------------------------------------|--------------------------|
-------------------------------------|--------------------------|
-------------------------------------|--------------------------|


E E E E E E E E E E Q E E E E E Q E E E Q
--5-----------------------|-------------3-----------|-------------3----------|
--------8--8--8--7--5--7--|----------------3--------|----------3-----3-------|
-----5--------------------|--5--5--5-------------4--|--L--4------------------|
--------------------------|--5--5--5----------5-----|-------------------5----|
--------------------------|--3-----3----------------|------------------------|
--------------------------|-------------------------|------------------------|


E E Q E E E E E Q Q E E E
---------------10--------------|----------------------------|
---------10--------10------12--|--L--12----13----12--10-----|
-------------------------------|----------------------------|
-----12----------------12------|----------------------------|
-------------------------------|-------------------------0--|
-------------------------------|----------------------------|

E E Q Q E E E E E E E E Q Q Q Q.
---------------------5--|-----5-----5--5--5--5----|--5----5----5------|
-------------8----L--7--|-----7-----8--8--8--8----|--8----7----5------|
--------5------------5--|-----5-----5--5--5--5----|--5----5----5------|
-----7------------------|-------------------------|--7----7----7------|
--0---------------------|-------------------------|-------------------|
------------------------|-------------------------|-------------------|


Q Q Q. Q Q Q. Q Q Q. Q Q Q.
--5----5----5------|--5----5----5------|--5----5----5------|--5----5----5------|
--8----7----5------|--8----7----5------|--8----7----5------|--8----7----5------|
--5----5----5------|--5----5----5------|--5----5----5------|--5----5----5------|
--7----7----7------|--7----7----7------|--7----7----7------|--7----7----7------|
-------------------|-------------------|-------------------|-------------------|
-------------------|-------------------|-------------------|-------------------|


Q Q Q. Q Q Q. Q Q Q.
--5----5----5------|--5----5----5------|--5----5----5------|
--8----7----5------|--8----7----5------|--8----7----5------|
--5----5----5------|--5----5----5------|--5----5----5------|
--7----7----7------|--7----7----7------|--7----7----7------|
-------------------|-------------------|-------------------|
-------------------|-------------------|-------------------|


E E E Q E E E E E Q E E E Q
--1--(1)--(1)--3----|--1--(1)--(1)--3-----3----|--1--(1)--(1)--3----|
--1--(1)--(1)--3----|--1--(1)--(1)--3-----3----|--1--(1)--(1)--3----|
--2--(2)--(2)--4----|--2--(2)--(2)--4-----4----|--2--(2)--(2)--4----|
--3--(3)--(3)--5----|--3--(3)--(3)--5-----5----|--3--(3)--(3)--5----|
--3--(3)--(3)--5----|--3--(3)--(3)--5-----5----|--3--(3)--(3)--5----|
--1--(1)--(1)--3----|--1--(1)--(1)--3-----3----|--1--(1)--(1)--3----|


E E E E E Q E E E E E Q E E E E E E Q E
--1--(1)--(1)--3-----3----|-----------------5-------|-------------------------|
--1--(1)--(1)--3-----3----|--6--------------6----5--|--L--------------5----6--|
--2--(2)--(2)--4-----4----|--7--7--7--7--7--7----5--|--L--5--5--5--5--5----7--|
--3--(3)--(3)--5-----5----|--7--7--7--7--7-------5--|--L--5--5--5--5--5----7--|
--3--(3)--(3)--5-----5----|--5--5--5--5--5-------3--|--L--3--3--3--3-------5--|
--1--(1)--(1)--3-----3----|-------------------------|-------------------------|


E E E E E E E E Q. H E E E E E E Q E
-----------5-----------1--|--L------3-----------|-----------------5-------|
--L--6--------6--5--6--1--|--L------3--------6--|--L--------------6----5--|
--L-----7--------------2--|--L------4--------7--|--L--7--7--7--7--7----5--|
--L--------------------3--|--L------5--------7--|--L--7--7--7--7-------5--|
--L--------------------3--|--L------5--------5--|--L--5--5--5--5-------3--|
-----------------------1--|--L------3-----------|-------------------------|

E E E E E Q E E E E E Q. E Q. H E
----------------------5--|--L-----------5------1--|--L------3--------5--|
--L--------------5----6--|--L--------6---------1--|--L------3--------6--|
--L--5--5--5--5--5----7--|--L-----7------------2--|--L------4--------7--|
--L--5--5--5--5--5----7--|--L--7---------------3--|--L------5--------7--|
--L--3--3--3--3-------5--|--L------------------3--|--L------5--------5--|
-------------------------|---------------------1--|--L------3-----------|


E E E E E Q E E E E E E Q E E E E E E E E E
-----------------5-------|-------------------------|-----------5-----------1--|
--6--------------6----5--|--L--------------5----6--|--L--6--------6--5--6--1--|
--7--7--7--7--7--7----5--|--L--5--5--5--5--5----7--|--L-----7--------------2--|
--7--7--7--7--7-------5--|--L--5--5--5--5--5----7--|--L--------------------3--|
--5--5--5--5--5-------3--|--L--3--3--3--3-------5--|--L--------------------3--|
-------------------------|-------------------------|-----------------------1--|


Q. H E E E E E E Q E E E E E E Q E
--L------3-----------|-----------------5-------|----------------------5--|
--L------3--------6--|--L--------------6----5--|--L--------------5----6--|
--L------4--------7--|--L--7--7--7--7--7----5--|--L--5--5--5--5--5----7--|
--L------5--------7--|--L--7--7--7--7-------5--|--L--5--5--5--5--5----7--|
--L------5--------5--|--L--5--5--5--5-------3--|--L--3--3--3--3-------5--|
--L------3-----------|-------------------------|-------------------------|


E E E E Q. E Q. H E E E E E E E E E
--L-----------5------1--|--L------3-----------|--5--5--5--5--5--5--5--5--|
--L--------6---------1--|--L------3-----------|--6--6--6--6--6--6--6--6--|
--L-----7------------2--|--L------4--------7--|--7--7--7--7--7--7--7--7--|
--L--7---------------3--|--L------5--------7--|--7--7--7--7--7--7--7--7--|
--L------------------3--|--L------5--------5--|--5--5--5--5--5--5--5--5--|
---------------------1--|--L------3-----------|--------------------------|

E E E E E E E E E E E E E E E E E E Q E E Q
--------------------------|--5--5--5--5--5--5--5--5--|--1--1--1----3--3--3----|
--5--5--5--5--5--5--5--5--|--6--6--6--6--6--6--6--6--|--1--1--1----3--3--3----|
--5--5--5--5--5--5--5--5--|--7--7--7--7--7--7--7--7--|--2--2--2----4--4--4----|
--5--5--5--5--5--5--5--5--|--7--7--7--7--7--7--7--7--|--3--3--3----5--5--5----|
--3--3--3--3--3--3--3--3--|--5--5--5--5--5--5--5--5--|--3--3--3----5--5--5----|
--------------------------|--------------------------|--1--1--1----3--3--3----|
E E E E E E E E E E E E E E E E
--5--5--5--5--5--5--5--5--|--------------------------|
--6--6--6--6--6--6--6--6--|--5--5--5--5--5--5--5--5--|
--7--7--7--7--7--7--7--7--|--5--5--5--5--5--5--5--5--|
--7--7--7--7--7--7--7--7--|--5--5--5--5--5--5--5--5--|
--5--5--5--5--5--5--5--5--|--3--3--3--3--3--3--3--3--|
--------------------------|--------------------------|
E E E E E E E E E E E E E E E E
--5--5--5--5--5--5--5--5--|----------------------------------|
--6--6--6--6--6--6--6--6--|--10--10--10--10--12--12--12--12--|
--7--7--7--7--7--7--7--7--|--10--10--10--10--12--12--12--12--|
--7--7--7--7--7--7--7--7--|--10--10--10--10--12--12--12--12--|
--5--5--5--5--5--5--5--5--|---8---8---8---8--10--10--10--10--|
--------------------------|----------------------------------|
E E E E E E E E E E E E E E E E
--5--5--5--5--5--5--5--5--|--------------------------|
--6--6--6--6--6--6--6--6--|--5--5--5--5--5--5--5--5--|
--7--7--7--7--7--7--7--7--|--5--5--5--5--5--5--5--5--|
--7--7--7--7--7--7--7--7--|--5--5--5--5--5--5--5--5--|
--5--5--5--5--5--5--5--5--|--3--3--3--3--3--3--3--3--|
--------------------------|--------------------------|
E E E E E E E E E E E E E E E E
--5--5--5--5--5--5--5--5--|----------------------------------|
--6--6--6--6--6--6--6--6--|--10--10--10--10--12--12--12--12--|
--7--7--7--7--7--7--7--7--|--10--10--10--10--12--12--12--12--|
--7--7--7--7--7--7--7--7--|--10--10--10--10--12--12--12--12--|
--5--5--5--5--5--5--5--5--|---8---8---8---8--10--10--10--10--|
--------------------------|----------------------------------|
E E H Q W W
--5-----5--------L----|--L----------------|--L----------------||
--6-----6--------L----|--L----------------|--L----------------||
--7-----7--------L----|--L----------------|--L----------------||
--7-----7--------L----|--L----------------|--L----------------||
--5-----5--------L----|--L----------------|--L----------------||
----------------------|-------------------|-------------------||
Song info
Distant Early Warning
Rush
2001
  • Rock
  • Pop Rock
  • Prog Rock
Similar songs
Kids - Robbie Williams
Sweet Jane - Cowboy Junkies
Out Of Time - The Rolling Stones
Forever - KISS

Hi! Hope you enjoy backing track experience.
If you want to help us in the development of the project, feel free to donate!