Far Cry - Rush
00:00 / 00:00
Tabs and lyrics
Tunning: Standard (E A D G B e)
FAR CRY
As recorded by Rush
(From the 2007 Album SNAKES & ARROWS (ATLANTIC 171836-2))

Words by PeartMusic by Lee and Lifeson
Arranged by Rush and Nick Raskulinecz
Transcribed by richardjsoto @ gmail dot com
Copyright 2007 Core Music Publishing (SOCAN)

Version 1.3 5-24-07


---



E E5
0 2 2 1 x x 0 2 2 x x x

Gtr I (E A D G B E) - 'Overdriven Guitar'
Gtr II (E A D G B E) - 'Distortion Guitar'
Gtr III (E A D G B E) - 'Chorused Guitar'
Gtr IV (E A D G B E) - 'Mandola'
Gtr V (E A D G B E) - 'Compressed Rhythm Guitar'
Gtr VI (E A D G B E) - 'FX Guitar'

Intro
Q=132
E
4/4
Gtr IV
S S S S S S S S S S S S S S S S S S S S S S S S S S S S S S S S
| | | | | | | | | | | | | | | | | | | | | | | | | | | | | | | |
/ / / / / / / / / / / / / / / / / / / / / / / / / / / / / / / /

Gtr I
E E E Q E Q E E E Q E S E S
|---------------------------------|---------------------------------|
|---------------------------------|---------------------------------|
|-4---4---4-----------------------|-4---4---4-----------------------|
|-2---2---2-----------2-----------|-2---2---2-----------2-----2-----|
|-2---2---2-----------2-----------|-2---2---2-----------2-----2-----|
|-0---0---0-----------0-----------|-0---0---0-----------0-----0-----|
|
| Gtr II
| E E E Q E Q E E E Q E S E S
|---------------------------------|---------------------------------|
|---------------------------------|---------------------------------|
|---------------------------------|---------------------------------|
|-2---2---2-----------2-----------|-2---2---2-----------2-----2-----|
|-2---2---2-----------2-----------|-2---2---2-----------2-----2-----|
|-0---0---0-----------0-----------|-0---0---0-----------0-----0-----|


6/4
S S S S S S S S S S S S S S S S S S S S S S S S
| | | | | | | | | | | | | | | | | | | | | | | |
/ / / / / / / / / / / / / / / / / / / / / / / /

E E E E E E E Q E Q
|---------------------------------------------------|
|---------------------------------------------------|
|-4---4---4-------1-------1-----------1-------------|
|-2---2---2-------2-------2-----------2-------------|
|-2---2---2-------2-------2-----------2-------------|
|-0---0---0-------0-------0-----------0-------------|
|
| E E E E E E E Q E Q
|---------------------------------------------------|
|---------------------------------------------------|
|---------------------------------------------------|
|-2---2---2-------2-------2-----------2-------------|
|-2---2---2-------2-------2-----------2-------------|
|-0---0---0-------0-------0-----------0-------------|


E
4/4
S S S S S S S S S S S S S S S S
| | | | | | | | | | | | | | | |
/ / / / / / / / / / / / / / / /

E E E Q E Q
|---------------------------------|
|---------------------------------|
|-4---4---4-----------------------|
|-2---2---2-----------2-----------|
|-2---2---2-----------2-----------|
|-0---0---0-----------0-----------|
|
| E E E Q E Q
|---------------------------------|
|---------------------------------|
|---------------------------------|
|-2---2---2-----------2-----------|
|-2---2---2-----------2-----------|
|-0---0---0-----------0-----------|


F#11
6/4
S S S S S S S S S S S S S S S S S S S S S S S S W
| | | | | | | | | | | | | | | | | | | | | | | |
/ / / / / / / / / / / / / / / / / / / / / / / /

Gtrs II, III
E E E E E E E E E E E E H.. E
|---------------------------------|-----------------^0-----------||
|---------------------------------|-----------------^0-----------||
|-4---4---4-------1-------1-------|-4---4---4-------^3-----------||
|-2---2---2-------2-------2-------|-2---2---2-------^4-----------||
|-2---2---2-------2-------2-------|-2---2---2-------^4-----------||
|-0---0---0-------0-------0-------|-0---0---0-------^2-----------||
|
| Gtrs I, IIIGtrs III, V
| E E E E E E E E E E E E H.. E
|---------------------------------|-----------------^0-----------||
|---------------------------------|-----------------^0-----------||
|---------------------------------|-----------------^3-----------||
|-2---2---2-------2-------2-------|-2---2---2-------^4-----------||
|-2---2---2-------2-------2-------|-2---2---2-------^4-----------||
|-0---0---0-------0-------0-------|-0---0---0-------^2---------2-||


Pre-Verse
N.C. E5 C5
4/4 3/4
Gtrs III, V
~~~ ~~~ ~~~
+Q Q E E E E +Q Q E E E E +Q Q E E E E +E E +E E E E
|-----------------|-----------------|-----------------|-------------------|
|-----------------|-----------------|-----------------|-------------------|
|-----------------|-----------------|---------------9-|-(9)-9-(9)\-5-5----|
|-----------------|-----------------|---------------9-|-(9)-9-(9)\-5-5----|
|-----------------|-------------3---|---------------7-|-(7)-7-(7)\-3-3----|
|-(2)--0--2-0-4-2-|-(2)--0--2-0---2-|-(2)--0--2-0-0---|----------------2--|


N.C. D5 E5 A5
4/4
~~~ ~~~ ~~~
+Q Q E E E E +Q Q E E E E +Q Q E E E E +E E E E E E +E E
|-----------------|-----------------|-----------------|------------------------|
|-----------------|-----------------|-----------------|------------------------|
|-----------------|-----------------|---------------7-|-(7)-7---9---14-(14)\---|
|-----------------|-----------------|---------------7-|-(7)-7---9---14-(14)\---|
|-----------------|-------------3---|---------------5-|-(5)-5---7---12-(12)\---|
|-(2)--0--2-0-4-2-|-(2)--0--2-0---2-|-(2)--0--2-0-0---|----------------------2-|


N.C. E5 C5
3/4
~~~ ~~~ ~~~
+Q Q E E E E +Q Q E E E E +Q Q E E E E +E E +E E E E
|-----------------|-----------------|-----------------|------------------|
|-----------------|-----------------|-----------------|------------------|
|-----------------|-----------------|---------------9-|-(9)-9-(9)\-5-5---|
|-----------------|-----------------|---------------9-|-(9)-9-(9)\-5-5---|
|-----------------|-------------3---|---------------7-|-(7)-7-(7)\-3-3---|
|-(2)--0--2-0-4-2-|-(2)--0--2-0---2-|-(2)--0--2-0-0---|----------------2-|


N.C.
4/4
~~~ ~~~ ~~~
+Q Q E E E E +Q Q E E E E +Q Q E E E E +E E E E E E E +E
|-----------------|-----------------|-----------------|---------------------||
|-----------------|-----------------|-----------------|---------------------||
|-----------------|-----------------|-----------------|-------0-------0-(0)-||
|-----------------|-----------------|-----------------|-----2-------2-------||
|-----------------|-------------3---|---------------3-|-(3)-----3-0---------||
|-(2)--0--2-0-4-2-|-(2)--0--2-0---2-|-(2)--0--2-0-0---|---------------------||


Verse
E
Gtrs V, VI
~~~~~~~~~~~~ ~~~~~~~~~~ ~~~~~~~~~~~~~~~~~~~~ ~~~~~~~~~~ ~~~~~~~
S S S S S S S S S S S S S S S S S S S S S S S S S S S S S S S S
||----------------------------------|---------------------------------|
||o---------------------------------|---------------------------------|
||----------------------------------|---------------------------------|
||----------------------------------|---------------------------------|
||o-7-7-7-7-7-7-8-7-7-7-7-7-8-7-7-7-|-7-7-7-7-7-7-8-7-7-7-7-7-8-7-7-7-|
||----------------------------------|---------------------------------|


~~~~~~~~~~~~~ ~~~~~~~~~~ ~~~~~~
S S S S S S S S S S S S S S S S
|------------------------------------|
|------------------------------------|
|------------------------------------|
|------------------------------------|
|-7-7-7-7-7-7-8-7-7-7-7-7-8-7-7-7----|
|------------------------------------|


1.,2. 3.
E5
5/4
Gtr V
PM----| PM----| PM----| PM----|
E S S S S E S S S S Q 3x E S S S S E S S S S Q Q
|-------------------------||---------------------------||
|------------------------o||---------------------------||
|-------------------------||---------------------------||
|-2---------2---------2---||-2---------2---------2--2--||
|-2---------2---------2--o||-2---------2---------2--2--||
|-0-0-0-0-0-0-0-0-0-0-0---||-0-0-0-0-0-0-0-0-0-0-0--0--||


Pre-Chorus
G5/D D
4/4
Gtr V
E S S E S S S S S S E +E E S S E S S S S S S E +E
|---------------------------------------|--------------------------------------|
|---------------------------------------|--------------------------------------|
|-12-12-12-12-12-12-12-12-12-12-12-(12)-|11-11-11-11-11-11-11-11-11-11-11-(11)\|
|-12-12-12-12-12-12-12-12-12-12-12-(12)-|12-12-12-12-12-12-12-12-12-12-12-(12)\|
|-10-10-10-10-10-10-10-10-10-10-10-(10)-|12-12-12-12-12-12-12-12-12-12-12-(12)\|
|-10-10-10-10-10-10-10-10-10-10-10-(10)-|10-10-10-10-10-10-10-10-10-10-10-(10)\|


A B G
E E E E E E E +E E E E E +E E E E
|--------------------|---------------------|
|--------------------|---------------------|
|-6-6-6-6-6-6-6-(6)/-|-8-8-8S4-(4)-4-4-4---|
|-7-7-7-7-7-7-7-(7)/-|-9-9-9S5-(5)-5-5-5---|
|-7-7-7-7-7-7-7-(7)/-|-9-9-9S5-(5)-5-5-5---|
|-5-5-5-5-5-5-5-(5)/-|-7-7-7S3-(3)-3-3-3---|


G5/D D
E S S E S S S S S S E +E E S S E S S S S S S E +E
|--------------------------------------|--------------------------------------|
|--------------------------------------|--------------------------------------|
|-12-12-12-12-12-12-12-12-12-12-12-(12)|11-11-11-11-11-11-11-11-11-11-11-(11)\|
|-12-12-12-12-12-12-12-12-12-12-12-(12)|12-12-12-12-12-12-12-12-12-12-12-(12)\|
|-10-10-10-10-10-10-10-10-10-10-10-(10)|12-12-12-12-12-12-12-12-12-12-12-(12)\|
|-10-10-10-10-10-10-10-10-10-10-10-(10)|10-10-10-10-10-10-10-10-10-10-10-(10)\|



E5
E E E E +E E E E E S S E E +E E E E
|-------------------|-----------------------|
|-------------------|-----------------------|
|-1-1---------------|-1---------------------|
|-2-2-2-2-(2)-2-2---|-2-2-2-2-2-(2)-2-2-----|
|-2-2-2-2-(2)-2-2---|-2-2-2-2-2-(2)-2-2-----|
|-0-0-0-0-(0)-0-0---|-0-0-0-0-0-(0)-0-0-----|


G5/D
E S S E S S S S S S E +E
|----------------------------------------|
|----------------------------------------|
|-12-12-12-12-12-12-12-12-12-12-12-(12)--|
|-12-12-12-12-12-12-12-12-12-12-12-(12)--|
|-10-10-10-10-10-10-10-10-10-10-10-(10)\-|
|-10-10-10-10-10-10-10-10-10-10-10-(10)--|


D A B G
E S S E S S S S S S E +E E E E E E E E +E E E E E +E E E E
|----------------------------------------|--------------------|-------------------|
|----------------------------------------|--------------------|-------------------|
|-11-11-11-11-11-11-11-11-11-11-11-(11)\-|-6-6-6-6-6-6-6-(6)/-|-8-8-8S4-(4)-4-4-4-|
|-12-12-12-12-12-12-12-12-12-12-12-(12)\-|-7-7-7-7-7-7-7-(7)/-|-9-9-9S5-(5)-5-5-5-|
|-12-12-12-12-12-12-12-12-12-12-12-(12)\-|-7-7-7-7-7-7-7-(7)/-|-9-9-9S5-(5)-5-5-5-|
|-10-10-10-10-10-10-10-10-10-10-10-(10)\-|-5-5-5-5-5-5-5-(5)/-|-7-7-7S3-(3)-3-3-3-|


E5 D5E5 D5E5D5/EE5 D5E5 D5E5D5/E
E E E E E E E E E E E E E E E E
|-----------------|-----------------||
|-----------------|-----------------||
|-9-9-7-9-9-7-9-7-|-9-9-7-9-9-7-9-7-||
|-9-9-7-9-9-7-9-7-|-9-9-7-9-9-7-9-7-||
|-7-7-7-7-7-7-7-7-|-7-7-7-7-7-7-7-7-||
|-----------------|-----------------||


Chorus
$
$$
E5 D DsD5D A E5
E E E Q E E E E E E Q E E E E E E Q Q E E E E E +S S E Q
||--0-----0--------|-2-0---2--2-2-2-|-5-5-5-5--5----|-------0-(0)-----0---|
||o-0-----0--------|-3-3-3-3--3-3-3-|-2-2-2-2--2----|-------0-(0)-----0---|
||--4-----4--4-4-4-|-2-2-2-2--2-2-2-|-2-2-2-2--2--2-|-------4-(4)-4-4-4---|
||--2-2-2-2--2-2-2-|-0-0-0-0--0-0-0-|-2-2-2-2--2--2-|-2-2-2-2-(2)-2-2-2---|
||o-2-2-2-2--2-2-2-|----------------|-0-0-0-0--0--0-|-2-2-2-2-(2)-2-2-2---|
||--0-0-0-0--0-0-0-|----------------|---------------|-0-0-0-0-(0)-0-0-0---|


1.
D DsD5D F#
E E E Q E E E E E E Q E E E
|-2-0---2--2-2-2-|-2-2-2-2--2-2-2--||
|-3-3-3-3--3-3-3-|-2-2-2-2--2-2-2-o||
|-2-2-2-2--2-2-2-|-3-3-3-3--3-3-3--||
|-0-0-0-0--0-0-0-|-4-4-4-4--4-4-4--||
|----------------|-4-4-4-4--4-4-4-o||
|----------------|-2-2-2-2--2-2-2--||


2.
To Coda
To Coda
F# E5
PM----| PM----|
S S S S S S S S S S S S S S S S E S S S S E S S S S E E
|-14-14-14-14-14-14-14-14-14-14-14-14-14-14-14-14-|----------------------------||
|-14-14-14-14-14-14-14-14-14-14-14-14-14-14-14-14-|----------------------------||
|-15-15-15-15-15-15-15-15-15-15-15-15-15-15-15-15-|----------------------------||
|-16-16-16-16-16-16-16-16-16-16-16-16-16-16-16-16-|-2---------2---------2-2----||
|-------------------------------------------------|-2---------2---------2-2----||
|-------------------------------------------------|-0-0-0-0-0-0-0-0-0-0-0-0----||


Verse
E
Gtrs V, VI
~~~~~~~~~~~~ ~~~~~~~~~~ ~~~~~~~~~~~~~~~~~~~~ ~~~~~~~~~~ ~~~~~~~
S S S S S S S S S S S S S S S S S S S S S S S S S S S S S S S S
||----------------------------------|---------------------------------|
||o---------------------------------|---------------------------------|
||----------------------------------|---------------------------------|
||----------------------------------|---------------------------------|
||o-7-7-7-7-7-7-8-7-7-7-7-7-8-7-7-7-|-7-7-7-7-7-7-8-7-7-7-7-7-8-7-7-7-|
||----------------------------------|---------------------------------|


~~~~~~~~~~~~~ ~~~~~~~~~~ ~~~~~~
S S S S S S S S S S S S S S S S
|------------------------------------|
|------------------------------------|
|------------------------------------|
|------------------------------------|
|-7-7-7-7-7-7-8-7-7-7-7-7-8-7-7-7----|
|------------------------------------|


1.,2. 3.
E5
5/4
PM----| PM----| PM----| PM----|
E S S S S E S S S S Q 3x E S S S S E S S S S Q Q
|-------------------------||---------------------------||
|------------------------o||---------------------------||
|-------------------------||---------------------------||
|-2---------2---------2---||-2---------2---------2--2--||
|-2---------2---------2--o||-2---------2---------2--2--||
|-0-0-0-0-0-0-0-0-0-0-0---||-0-0-0-0-0-0-0-0-0-0-0--0--||


Pre-Chorus
G5/D D
4/4
Gtr V
E S S E S S S S S S E +E E S S E S S S S S S E +E
|---------------------------------------|----------------------------------------|
|---------------------------------------|----------------------------------------|
|-12-12-12-12-12-12-12-12-12-12-12-(12)-|-11-11-11-11-11-11-11-11-11-11-11-(11)\-|
|-12-12-12-12-12-12-12-12-12-12-12-(12)-|-12-12-12-12-12-12-12-12-12-12-12-(12)\-|
|-10-10-10-10-10-10-10-10-10-10-10-(10)-|-12-12-12-12-12-12-12-12-12-12-12-(12)\-|
|-10-10-10-10-10-10-10-10-10-10-10-(10)-|-10-10-10-10-10-10-10-10-10-10-10-(10)\-|


A B G
E E E E E E E +E E E E E +E E E E
|--------------------|---------------------|
|--------------------|---------------------|
|-6-6-6-6-6-6-6-(6)/-|-8-8-8S4-(4)-4-4-4---|
|-7-7-7-7-7-7-7-(7)/-|-9-9-9S5-(5)-5-5-5---|
|-7-7-7-7-7-7-7-(7)/-|-9-9-9S5-(5)-5-5-5---|
|-5-5-5-5-5-5-5-(5)/-|-7-7-7S3-(3)-3-3-3---|


G5/D
E S S E S S S S S S E +E
|---------------------------------------|
|---------------------------------------|
|-12-12-12-12-12-12-12-12-12-12-12-(12)-|
|-12-12-12-12-12-12-12-12-12-12-12-(12)-|
|-10-10-10-10-10-10-10-10-10-10-10-(10)-|
|-10-10-10-10-10-10-10-10-10-10-10-(10)-|


D E5 D5E5 D5E5
E S S E S S S S S S E +E E +E E E +E E E E
|----------------------------------------|---------------------|
|----------------------------------------|---------------------|
|-11-11-11-11-11-11-11-11-11-11-11-(11)\-|-9-(9)-7-9-(9)-7-9---|
|-12-12-12-12-12-12-12-12-12-12-12-(12)\-|-9-(9)-7-9-(9)-7-9---|
|-12-12-12-12-12-12-12-12-12-12-12-(12)\-|-7-(7)-7-7-(7)-7-7---|
|-10-10-10-10-10-10-10-10-10-10-10-(10)\-|---------------------|


E5 D5E5 D5E5 G5/D
E E E E E E E E E S S E S S S S S S E +E
|-----------------|---------------------------------------|
|-----------------|---------------------------------------|
|-9-9-7-9-9-7-9---|-12-12-12-12-12-12-12-12-12-12-12-(12)-|
|-9-9-7-9-9-7-9---|-12-12-12-12-12-12-12-12-12-12-12-(12)-|
|-7-7-7-7-7-7-7---|-10-10-10-10-10-10-10-10-10-10-10-(10)-|
|-----------------|-10-10-10-10-10-10-10-10-10-10-10-(10)-|


D
E S S E S S S S S S E +E
|----------------------------------------|
|----------------------------------------|
|-11-11-11-11-11-11-11-11-11-11-11-(11)\-|
|-12-12-12-12-12-12-12-12-12-12-12-(12)\-|
|-12-12-12-12-12-12-12-12-12-12-12-(12)\-|
|-10-10-10-10-10-10-10-10-10-10-10-(10)\-|


D.S. al Coda
A B G
~~~~~~~~~~~~~~TP~~
E E E E E E E +E E E E E +E E E E W W
|--------------------|-------------------|------------|---x------||
|--------------------|-------------------|------------|---x------||
|-6-6-6-6-6-6-6-(6)/-|-8-8-8S4-(4)-4-4-4-|------------|---x------||
|-7-7-7-7-7-7-7-(7)/-|-9-9-9S5-(5)-5-5-5-|------------|---x------||
|-7-7-7-7-7-7-7-(7)/-|-9-9-9S5-(5)-5-5-5-|------------|----------||
|-5-5-5-5-5-5-5-(5)/-|-7-7-7S3-(3)-3-3-3-|---------|-()----||
W +W


Bridge
&
E
4/4
Gtr I
E E E S S S S E S S S S E E E S S S S E S E S
|-------------------------|-----------------------|
|-------------------------|-----------------------|
|-4-4-4-------------------|-4-4-4-----------------|
|-2-2-2---------2---------|-2-2-2---------2---2---|
|-2-2-2---------2---------|-2-2-2---------2---2---|
|-0-0-0-0-0-0-0-0-0-0-0-0-|-0-0-0-0-0-0-0-0---0---|
|
| Gtr II
| E E E S S S S E S S S S E E E S S S S E S E S
|-------------------------|-----------------------|
|-------------------------|-----------------------|
|-------------------------|-----------------------|
|-2-2-2---------2---------|-2-2-2---------2---2---|
|-2-2-2---------2---------|-2-2-2---------2---2---|
|-0-0-0-0-0-0-0-0-0-0-0-0-|-0-0-0-0-0-0-0-0---0---|


6/4
E E E S S E S S E S S S S E S S S S
|-------------------------------------|
|-------------------------------------|
|-4-4-4-----1-----1---------1---------|
|-2-2-2-----2-----2---------2---------|
|-2-2-2-----2-----2---------2---------|
|-0-0-0-0-0-0-0-0-0-0-0-0-0-0-0-0-0-0-|
|
| E E E S S E S S E S S S S E S S S S
|-------------------------------------|
|-------------------------------------|
|-------------------------------------|
|-2-2-2-----2-----2---------2---------|
|-2-2-2-----2-----2---------2---------|
|-0-0-0-0-0-0-0-0-0-0-0-0-0-0-0-0-0-0-|


E F#11
4/4 6/4
Gtrs II, IIGtr II
~
E E E S S S S E S S S S E E E S S E S S E S S E E E S S H.. E
|-------------------------|-----------------------|-----------^0-----------||
|-------------------------|-----------------------|-----------^0-----------||
|-4-4-4-------------------|-4-4-4-----1-----1-----|-4-4-4-----^3-----------||
|-2-2-2---------2---------|-2-2-2-----2-----2-----|-2-2-2-----^4-----------||
|-2-2-2---------2---------|-2-2-2-----2-----2-----|-2-2-2-----^4---------4-||
|-0-0-0-0-0-0-0-0-0-0-0-0-|-0-0-0-0-0-0-0-0-0-0-0-|-0-0-0-0-0-^2-----------||
|
| Gtrs I, IIIGtrs III, V
| E E E S S S S E S S S S E E E S S E S S E S S E E E S S H.. E
|-------------------------|-----------------------|-----------^0-----------||
|-------------------------|-----------------------|-----------^0-----------||
|-------------------------|-----------------------|-----------^3-----------||
|-2-2-2---------2---------|-2-2-2-----2-----2-----|-2-2-2-----^4-----------||
|-2-2-2---------2---------|-2-2-2-----2-----2-----|-2-2-2-----^4-----------||
|-0-0-0-0-0-0-0-0-0-0-0-0-|-0-0-0-0-0-0-0-0-0-0-0-|-0-0-0-0-0-^2---------2-||


Feedback Guitar Solo
N.C.
4/4
Gtr I
~~~~~~~~~~~~~~~~
W W
|-----------------|-----------------|
|-----------------|-----------------|
|-----------------|-----------------|
|-----------------|-----------------|
|-----------------|-16--------------|
|-----------------|-----------------|
|
| Gtr II
| ~~~~~~~~~~~~~~~~~~~~~~~~~~~~~~~~~~
| +W +W
|-----------------|-----------------|
|-----------------|-----------------|
|-----------------|-----------------|
|-----------------|-----------------|
|-(4)-------------|-(4)-------------|
|-----------------|-----------------|
|
| Gtrs III, V
| ~~~ ~~~
| +Q Q E E E E +Q Q E E E E
|-----------------|-----------------|
|-----------------|-----------------|
|-----------------|-----------------|
|-----------------|-----------------|
|-----------------|-------------3---|
|-(2)--0--2-0-4-2-|-(2)--0--2-0---2-|


E5 C5
3/4
~~~~~~~~~~~~~~~~~~~~~~~~~
+W +H.
|------------------|--------------------------|
|------------------|--------------------------|
|------------------|--------------------------|
|------------------|--------------------------|
|-(16)-------------|-(16)---------------------|
|------------------|--------------------------|
|
|~~~~~~~~~~~~~~~~~~~~~~~~~ ~~~~~
| +W +H +E E
|------------------|--------------------------|
|------------------|--------------------------|
|------------------|--------------------------|
|------------------|--------------------3b5===|
|--(4)-------------|--(4)----------(4)-(4)----|
|------------------|--------------------------|
|
| ~~~~
| +Q Q E E E E +E E +E E E E
|------------------|--------------------------|
|------------------|--------------------------|
|----------------9-|--(9)-9-(9)\-5--5---------|
|----------------9-|--(9)-9-(9)\-5--5---------|
|----------------7-|--(7)-7-(7)\-3--3---------|
|--(2)--0--2-0-0---|--------------------2-----|


N.C.
4/4
~~~~~~~~~~~~~~~~~~~~~~~~~~~~~~~~~~~
+W W
|------------------|------------------|
|------------------|------------------|
|------------------|------------------|
|------------------|--16--------------|
|-(16)-------------|-(16)-------------|
|------------------|------------------|
|
| ~~~~~~~~~~~~~~~~~~~~~~~~~~~~~~~~~~~
| +W +W
|------------------|------------------|
|------------------|------------------|
|------------------|------------------|
|--(3)-------------|--(3)-------------|
|--(4)-------------|--(4)-------------|
|------------------|------------------|
|
| ~~~~ ~~~~
| +Q Q E E E E +Q Q E E E E
|------------------|------------------|
|------------------|------------------|
|------------------|------------------|
|------------------|------------------|
|------------------|--------------3---|
|--(2)--0--2-0-4-2-|--(2)--0--2-0---2-|


D5 E5 A5
~~~~~~~~~~~~~~~~~~~~~~~~~
+W +H. +E +E
|------------------|------------------------------|
|------------------|------------------------------|
|------------------|------------------------------|
|-(16)-------------|-(16)------------(16)---------|
|-(16)-------------|-(16)------------(16)--(16)---|
|------------------|------------------------------|
|
|~~~~~~~~~~~~~~~~~~~~~~~~~
| +W +H. +E E
|------------------|------------------------------|
|------------------|------------------------------|
|------------------|------------------------------|
|--(3)-------------|--(3)-------------(3)r---3b5==|
|--(4)-------------|--(4)-------------(4)---(4)---|
|------------------|------------------------------|
|
| ~~~~
| +Q Q E E E E +E E E E E E +E E
|------------------|------------------------------|
|------------------|------------------------------|
|----------------7-|--(7)-7---9---14-(14)\--------|
|----------------7-|--(7)-7---9---14-(14)\--------|
|----------------5-|--(5)-5---7---12-(12)\--------|
|--(2)--0--2-0-0---|-------------------------2----|


N.C.
~~~~~~~~~~~~~~~~~~~~~~~~~~~~~~~~~~~
+W W
|------------------|------------------|
|------------------|------------------|
|------------------|------------------|
|------------------|--16--------------|
|-(16)-------------|-(16)-------------|
|------------------|------------------|
|
| ~~~~~~~~~~~~~~~~~~~~~~~~~~~~~~~~~~~
| +W +W
|------------------|------------------|
|------------------|------------------|
|------------------|------------------|
|--(3)-------------|--(3)-------------|
|--(4)-------------|--(4)-------------|
|------------------|------------------|
|
| ~~~~ ~~~~
| +Q Q E E E E +Q Q E E E E
|------------------|------------------|
|------------------|------------------|
|------------------|------------------|
|------------------|------------------|
|------------------|--------------3---|
|--(2)--0--2-0-4-2-|--(2)--0--2-0---2-|


E5 C5
3/4
~~~~~~~~~~~~~~~~~~~~~~~~~
+W +H +E +E
|------------------|----------------------------|
|------------------|----------------------------|
|------------------|----------------------------|
|-(16)-------------|-(16)----------(16)---------|
|-(16)-------------|-(16)----------(16)--(16)---|
|------------------|----------------------------|
|
|~~~~~~~~~~~~~~~~~~~~~~~~~
| +W +H +E E
|------------------|----------------------------|
|------------------|----------------------------|
|------------------|----------------------------|
|--(3)-------------|--(3)-----------(3)r---3b5==|
|--(4)-------------|--(4)-----------(4)---(4)---|
|------------------|----------------------------|
|
| ~~~~
| +Q Q E E E E +E E +E E E E
|------------------|----------------------------|
|------------------|----------------------------|
|----------------9-|--(9)-9-(9)\-5---5----------|
|----------------9-|--(9)-9-(9)\-5---5----------|
|----------------7-|--(7)-7-(7)\-3---3----------|
|--(2)--0--2-0-0---|-----------------------2----|


N.C.
4/4
~~~~~~~~~~~~~~~~~~~~~~~~~~~~~~~~~~~
+W W
|------------------|------------------|
|------------------|------------------|
|------------------|------------------|
|------------------|--16--------------|
|-(16)-------------|-(16)-------------|
|------------------|------------------|
|
| ~~~~~~~~~~~~~~~~~~~~~~~~~~~~~~~~~~~
| +W +W
|------------------|------------------|
|------------------|------------------|
|------------------|------------------|
|--(3)-------------|--(3)-------------|
|--(4)-------------|--(4)-------------|
|------------------|------------------|
|
| ~~~~ ~~~~
| +Q Q E E E E +Q Q E E E E
|------------------|------------------|
|------------------|------------------|
|------------------|------------------|
|------------------|------------------|
|------------------|--------------3---|
|--(2)--0--2-0-4-2-|--(2)--0--2-0---2-|


~~~~~~~
+W W
|-------------------|---------------------||
|-------------------|---------------------||
|-------------------|---------------------||
|-(16)--------------|---------------------||
|-(16)--------------|---------------------||
|-------------------|---------------------||
|
|~~~~~~~
| +W W
|-------------------|---------------------||
|-------------------|---------------------||
|-------------------|---------------------||
|--(3)r-------------|---------------------||
|--(4)--------------|---------------------||
|-------------------|---------------------||
|
| ~~~~~
| +Q Q E E E E +E E E E E E E +E
|-------------------|---------------------||
|-------------------|---------------------||
|-------------------|-------0-------0-(0)-||
|-------------------|-----2-------2-------||
|-----------------3-|-(3)-----3-0---------||
|--(2)---0--2-0-0---|---------------------||


Pre-Chorus
G5/D D
4/4
Gtr V
E S S E S S S S S S E +E E S S E S S S S S S E +E
|---------------------------------------|----------------------------------------|
|---------------------------------------|----------------------------------------|
|-12-12-12-12-12-12-12-12-12-12-12-(12)-|-11-11-11-11-11-11-11-11-11-11-11-(11)\-|
|-12-12-12-12-12-12-12-12-12-12-12-(12)-|-12-12-12-12-12-12-12-12-12-12-12-(12)\-|
|-10-10-10-10-10-10-10-10-10-10-10-(10)-|-12-12-12-12-12-12-12-12-12-12-12-(12)\-|
|-10-10-10-10-10-10-10-10-10-10-10-(10)-|-10-10-10-10-10-10-10-10-10-10-10-(10)\-|


A B G
E E E E E E E +E E E E E +E E E E
|--------------------|---------------------|
|--------------------|---------------------|
|-6-6-6-6-6-6-6-(6)/-|-8-8-8S4-(4)-4-4-4---|
|-7-7-7-7-7-7-7-(7)/-|-9-9-9S5-(5)-5-5-5---|
|-7-7-7-7-7-7-7-(7)/-|-9-9-9S5-(5)-5-5-5---|
|-5-5-5-5-5-5-5-(5)/-|-7-7-7S3-(3)-3-3-3---|


G5/D
E S S E S S S S S S E +E
|----------------------------------------|
|----------------------------------------|
|-12-12-12-12-12-12-12-12-12-12-12-(12)--|
|-12-12-12-12-12-12-12-12-12-12-12-(12)--|
|-10-10-10-10-10-10-10-10-10-10-10-(10)\-|
|-10-10-10-10-10-10-10-10-10-10-10-(10)--|


D.S.S. al Dbl. Coda
D E5 D5E5 D5E5D5/EE5 D5E5 D5E5D5/E
E S S E S S S S S S E +E E E E E E E E E E E E E E E E E
|----------------------------------------|-----------------|-----------------||
|----------------------------------------|-----------------|-----------------||
|-11-11-11-11-11-11-11-11-11-11-11-(11)\-|-9-9-7-9-9-7-9-7-|-9-9-7-9-9-7-9-7-||
|-12-12-12-12-12-12-12-12-12-12-12-(12)\-|-9-9-7-9-9-7-9-7-|-9-9-7-9-9-7-9-7-||
|-12-12-12-12-12-12-12-12-12-12-12-(12)\-|-7-7-7-7-7-7-7-7-|-7-7-7-7-7-7-7-7-||
|-10-10-10-10-10-10-10-10-10-10-10-(10)\-|-----------------|-----------------||


Chorus (Cont.)
&&
E5 D DsD5D A E5
E E E Q E E E E E E Q E E E E E E Q Q E E E E E +S S E Q
|-0-----0--------|-2-0---2--2-2-2-|-5-5-5-5--5----|-------0-(0)-----0--|
|-0-----0--------|-3-3-3-3--3-3-3-|-2-2-2-2--2----|-------0-(0)-----0--|
|-4-----4--4-4-4-|-2-2-2-2--2-2-2-|-2-2-2-2--2--2-|-------4-(4)-4-4-4--|
|-2-2-2-2--2-2-2-|-0-0-0-0--0-0-0-|-2-2-2-2--2--2-|-2-2-2-2-(2)-2-2-2--|
|-2-2-2-2--2-2-2-|----------------|-0-0-0-0--0--0-|-2-2-2-2-(2)-2-2-2--|
|-0-0-0-0--0-0-0-|----------------|---------------|-0-0-0-0-(0)-0-0-0--|


D DsD5D F#
E E E Q E E E S S S S S S S S S S S S S S S S
|-2-0---2--2-2-2-|-14-14-14-14-14-14-14-14-14-14-14-14-14-14-14-14-|
|-3-3-3-3--3-3-3-|-14-14-14-14-14-14-14-14-14-14-14-14-14-14-14-14-|
|-2-2-2-2--2-2-2-|-15-15-15-15-15-15-15-15-15-15-15-15-15-15-15-15-|
|-0-0-0-0--0-0-0-|-16-16-16-16-16-16-16-16-16-16-16-16-16-16-16-16-|
|----------------|-------------------------------------------------|
|----------------|-------------------------------------------------|


E5 D
E Q E Q E E E Q E Q E E
|---------------|-2----2----2---|
|-0----0----0---|-3----3----3---|
|-4----4----4---|-2----2----2---|
|-2----2----2---|-0----0----0---|
|-2----2----2---|---------------|
|-0----0----0---|---------------|


A E5
E S S S S S S S S S S S S S S E E E E +S S E Q
|---5-5-5-5-5-5-5-5-5-5-5-5-5-5-|-------0-(0)-----0--|
|---2-2-2-2-2-2-2-2-2-2-2-2-2-2-|-------0-(0)-----0--|
|---2-2-2-2-2-2-2-2-2-2-2-2-2-2-|---4-4-4-(4)-4-4-4--|
|---2-2-2-2-2-2-2-2-2-2-2-2-2-2-|-2-2-2-2-(2)-2-2-2--|
|---0-0-0-0-0-0-0-0-0-0-0-0-0-0-|-2-2-2-2-(2)-2-2-2--|
|-------------------------------|-0-0-0-0-(0)-0-0-0--|


D DsD5D F#
E E E Q E E E S S S S S S S S S S S S S S S S
|-2-0---2--2-2-2-|-14-14-14-14-14-14-14-14-14-14-14-14-14-14-14-14-||
|-3-3-3-3--3-3-3-|-14-14-14-14-14-14-14-14-14-14-14-14-14-14-14-14-||
|-2-2-2-2--2-2-2-|-15-15-15-15-15-15-15-15-15-15-15-15-15-15-15-15-||
|-0-0-0-0--0-0-0-|-16-16-16-16-16-16-16-16-16-16-16-16-16-16-16-16-||
|----------------|-------------------------------------------------||
|----------------|-------------------------------------------------||


Outro
E5
4/4
Gtrs I, II
E E E S S S S E S S S S E E E S S S S E S E S
|-------------------------|-----------------------|
|-------------------------|-----------------------|
|-------------------------|-----------------------|
|-2-2-2---------2---------|-2-2-2---------2---2---|
|-2-2-2---------2---------|-2-2-2---------2---2---|
|-0-0-0-0-0-0-0-0-0-0-0-0-|-0-0-0-0-0-0-0-0---0---|


6/4
E E E S S E S S E S S S S E S S S S
|-------------------------------------|
|-------------------------------------|
|-------------------------------------|
|-2-2-2-----2-----2---------2---------|
|-2-2-2-----2-----2---------2---------|
|-0-0-0-0-0-0-0-0-0-0-0-0-0-0-0-0-0-0-|


E5
4/4
E E E S S S S E S S S S E E E S S E S S E S S
|---------------0---------|-----------------------|
|---------------0---------|-----------------------|
|---------------4---------|-----------------------|
|-2-2-2---------2---------|-2-2-2-----2-----2-----|
|-2-2-2---------2---------|-2-2-2-----2-----2-----|
|-0-0-0-0-0-0-0-0-0-0-0-0-|-0-0-0-0-0-0-0-0-0-0-0-|


5/4
E E E S S E S S S S E S S S S
|--------------------------------|
|--------------------------------|
|--------------------------------|
|-2-2-2-----2---------2----------|
|-2-2-2-----2---------2----------|
|-0-0-0-0-0-0-0-0-0-0-0-0-0-0-0--|


E5
4/4 5/4
Gtr III
E E E S S S S E S S S S E E W
|-------------------------|-----^0----*|
|-------------------------|-----^0----*|
|-------------------------|-----^3----*|
|-2-2-2---------2---------|-2-2-^4----*|
|-2-2-2---------2---------|-2-2-^4----*|
|-0-0-0-0-0-0-0-0-0-0-0-0-|-0-0-^2----*|


Duration Legend
---------------
W - whole; H - half; Q - quarter; E - 8th; S - 16th; T - 32nd; X - 64th; a - acciaccatura
+ - note tied to previous; . - note dotted; .. - note double dotted
Uncapitalized letters represent notes that are staccato (1/2 duration)
Irregular groupings are notated above the duration line
Duration letters will always appear directly above the note/fret number it represents the
duration for. Duration letters with no fret number below them represent rests. Multi-
bar rests are notated in the form Wxn, where n is the number of bars to rest for. Low
melody durations appear below the staff

Tablature Legend
----------------
h - hammer-on
p - pull-off
b - bend
pb - pre-bend
r - bend release (if no number after the r, then release immediately)
/\ - slide into or out of (from/to "nowhere")
s - legato slide
S - shift slide
- natural harmonic
[n] - artificial harmonic
n(n) - tapped harmonic
~ - vibrato
tr - trill
T - tap
TP - trem. picking
PM - palm muting
\n/ - tremolo bar dip; n = amount to dip
\n - tremolo bar down
n/ - tremolo bar up
/n\ - tremolo bar inverted dip
= - hold bend; also acts as connecting device for hammers/pulls
- volume swell (louder/softer)
x - on rhythm slash represents muted slash
o - on rhythm slash represents single note slash

Misc Legend
-----------
| - bar
|| - double bar
||o - repeat start
o|| - repeat end
*| - double bar (ending)
: - bar (freetime)
$ - Segno
& - Coda
Tempo markers - = BPM(8/16=s8/s16), where s8 = swing 8ths, s16 = swing 16ths

Song info
Far Cry
Rush
2001
  • Rock
  • Arena Rock
  • Classic Rock
Similar songs
Franklins Tower - Grateful Dead
Amazing Journey - The Who
Baker Street - Gerry Rafferty
Golden Years - David Bowie
Rock n Roll - Led Zeppelin

Hi! Hope you enjoy backing track experience.
If you want to help us in the development of the project, feel free to donate!