Subdivisions - Rush
00:00 / 00:00
Tabs and lyrics
Tunning: Standard (E A D G B e)
Rush: Subdivisions
From the album Signals (Mercury Records)
Copyright 1982 Core Music Publishing
Music by Lee and Lifeson
Lyrics by Peart


[Intro]
"Huge" Oberhiem Synth sound for the 7/8 intro (sawtooth wave
with a wide open filter). Guitar rests for 4 measures.

F#5
q q Q q q Q q q Q q q Q
e|---------------|---------------|---------------|---------------|
B|---------------|---------------|---------------|---------------|
G|o--------------|---------------|---------------|--------------o|
D|o4---4---4-----|-4---4---4-----|-4---4---4-----|-4---4---4----o|
A|-4---4---4-----|-4---4---4-----|-4---4---4-----|-4---4---4-----|
E|-2---2---2-----|-2---2---2-----|-2---2---2-----|-2---2---2-----|

F#5
e e e e e e e e e e e e e e e e e e e e e e e e e e e e e e e e
e|-----------------|-----------------|-----------------|-----------------|
B|-----------------|-----------------|-----------------|-----------------|
G|4-----------------|-----------------|-----------------|-----------------|
D|4-----------------|-----4---4---4---|-----------------|-----4---4---4---|
A|-4-4-4-4-4-4-4-4-|-4-4-------------|-4-4-4-4-4-4-4-4-|-4-4-------------|
E|-2-2-2-2-2-2-2-2-|-2-2---2---2---2-|-2-2-2-2-2-2-2-2-|-2-2---2---2---2-|

Repeat 3 times
Bm Asus2 G A Bm
q q h q q h e e e q e e e e e e q e e e
e|---------2-------|---------0-------|-----------------|-----------------|
B|---------3-------|---------0-------|---3-------2-----|---3---3---------|
G|o4---4---4-------|---------4------o|-----4-2-----4-2-|-4---4-----4-4-2-|
D|o4---4---4-------|-2---2----------o|-5-----2---------|-4---------------|
A|-2---2-----------|-0---0-----------|-5-----0---------|-2---------------|
E|-----------------|-----------------|-3---------------|-----------------|

G A Bm G A Bm
e e e q e e e e e e q e q e e e e e e e e
e|-----------------|-------2---------|-----------------|-----------------|
B|---3-------2-----|---3-------3-----|-----------------|-----------------|
G|-----4-2-----4-2-|-4---4-------4---|---------2-2-----|-4-4-----4-4-----|
D|-5-----2---------|-4---------------|-5-5-----2-2-----|-4-4-----4-4-----|
A|-5-----0---------|-2---------------|-5-5-----0-0-----|-2-2-----2-2-----|
E|-3---------------|-----------------|-3-3-------------|-----------------|

G A Bm
e e e e w+
e|-----------------|-----------------|
B|-----------------|-----------------|
G|---------2-2---4-|-----------------|
D|-5-5-----2-2---4-|-----------------|
A|-5-5-----0-0---2-|-----------------|
E|-3-3-------------|-----------------|

_______________________________________________________________________
| Sprawling on the...
| F#5 Growing up it....
| e e e e e e e e e e e e e e e e e e e e e e e e e e e e e e e e
e|-----------------|-----------------|-----------------|-----------------|
B|-----------------|-----------------|-----------------|-----------------|
G|o----------------|-----------------|-----------------|-----------------|
D|o----------------|-----4---4---4---|-----------------|-----4---4---4---|
A|-4-4-4-4-4-4-4-4-|-4-4-------------|-4-4-4-4-4-4-4-4-|-4-4-------------|
E|-2-2-2-2-2-2-2-2-|-2-2---2---2---2-|-2-2-2-2-2-2-2-2-|-2-2---2---2---2-|

_______________________________________________________________
These are not just straight eighth notes - there are rests
between some of them.
B A B A
e e e e e e e e e e e e e e e e
e|---------------|---------------|---------------|---------------|
B|---------------|---------------|---------------|---------------|
G|7---------------|---------------|---------------|---------------|
D|8---------------|---------------|---------------|---------------|
A|-2---2---2---2-|-0---0---0---0-|-2---2---2---2-|-0---0---0---0-|
E|---------------|---------------|---------------|---------------|

___________________________________________________________________
D E B A G A Bm
e e e e e e e e e e e e e e e e
e|---------------|---------------|-----------------|-----------------|
B|---------------|---------------|-----------------|-----------------|
G|---------------|---------------4---------2-2-----|-4-4-----4-4-----|
D|-------------2-|---------------4-5-5-----2-2-----|-4-4-----4-4-----|
A|-5---5---5-----|-4---4---4---0-|-5-5-----0-0-----|-2-2-----2-2-----|
E|---------------|---------------|-3-3-------------|-----------------|

_________________
G A | Bm G A Bm
e e e e | e e e e e e e e e e e e
e|-----------------|-----------------|-----------------|-----------------|
B|-----------------|-----------------|-----------------|-----------------|
G|---------2-2----o|-4-4-----4-4-----|---------2-2-----|-4-4-----4-4-----|
D|-5-5-----2-2----o|-4-4-----4-4-----|-5-5-----2-2-----|-4-4-----4-4-----|
A|-5-5-----0-0-----|-2-2-----2-2-----|-5-5-----0-0-----|-2-2-----2-2-----|
E|-3-3-------------|-----------------|-3-3-------------|-----------------|

A A
G addB B G addB B
e e e q e q e q e e e e q e e e e q e
e|-------------|-------------|-------------|-------------|
B|-------0-----|-------------|-------0-----|-------------|
G|3-----------4-|-----4-----4-|-----------4-|-----4-----4-|
D|4-----0-------|-------------|-----0-------|-------------|
A|---2---------|-0-----2-----|---2---------|-0-0---2-----|
E|-3-----------|-------------|-3-----------|-------------|

Subdivisions...
A A
G addB B G addB B
e e e q e q e q e e e e q e e e e q e
e|-------------|-------------|-------------|-------------|
B|-------0-----|-------------|-------0-----|-------------|
G|-----------4-|-----4-----4-|-----------4-|-----4-----4-|
D|-----0-------|-------------|-----0-------|-------------|
A|---2---------|-0-----2-----|---2---------|-0-0---2-----|
E|-3-----------|-------------|-3-----------|-------------|

Subdivisions...
A
G G addB B
e e e q e q e q e e e q e q e q e
e|-------------|-------------|-------------|-------------|
B|-------0-----|-------------|-------0-----|-------------|
G|-----------4-|-------------|-----------4-|-----4-----4-|
D|-----0-------|-------------|-----0-------|-------------|
A|---2---------|-0---2---2---|---2---------|-0-----2-----|
E|-3-----------|-------------|-3-----------|-------------|

A
G addB B G
e e e q e e e e q e e e e q e q e q
e|-------------|-------------|-------------|-------------|
B|-------0-----|-------------|-------0-----|-------------|
G|-----------4-|-----4-----4-|-----------4-|-------------|
D|-----0-------|-------------|-----0-------|-------------|
A|---2---------|-0-0---2-----|---2---------|-0---2---2---|
E|-3-----------|-------------|-3-----------|-------------|

A
G addB B G A B
e e e q e q e q e e e e q e q e Q
e|-------------|-------------|-------------|-------------|
B|-------0-----|-------------|-------0-----|-------------|
G|-----------4-|-----4-----4-|-----------4-|-2---2-4-----|
D|-----0-------|-------------|-----0-------|-2---2-4-----|
A|---2---------|-0-----2-----|---2---------|-0---0-2-----|
E|-3-----------|-------------|-3-----------|-------------|

A B G A B
Q Q Q Q Q Q Q Q
e|-------------|-------------|-------------|-------------|
B|-------------|-------------|-0-----0-----|-------------|
G|-2-----2-----|-4-----2-----|-4-----4-----|-2-----4-----|
D|-2-----2-----|-4-----2-----|-0-----0-----|-2-----4-----|
A|-0-----0-----|-2-----0-----|-x-----x-----|-0-----2-----|
E|-------------|-------------|-3-----3-----|-------------|

Repeat 4 times
A B A G A B
Q Q E E E E Q Q Q Q
e|-------------|-------------|-------------|-------------|
B|-------------|-------------|-3-----3-----|-------------|
G|-2-----2-----|-4--4--2--2--|o0-----0-----|-2-----4-----|
D|-2-----2-----|-4--4--2--2--|o0-----0-----|-2-----4-----|
A|-0-----0-----|-2--2--0--0--|-x-----x-----|-0-----2-----|
E|-------------|-------------|-3-----3-----|-------------|

A B A G A B
Q Q Q Q E E E E E E E E
e|-------------|-------------|-------------|-------------|
B|-------------|-------------|-------------|-------------|
G|-2-----2-----|-4-----2----o|-4--4--4--4--|-2--2--4--4--|
D|-2-----2-----|-4-----2----o|-5--5--5--5--|-2--2--4--4--|
A|-0-----0-----|-2-----0-----|-5--5--5--5--|-0--0--2--2--|
E|-------------|-------------|-3--3--3--3--|-------------|

F#5
q q Q q q Q
e|---------------|---------------|
B|---------------|---------------|
G|7---------------|---------------|
D|8-4---4---4-----|-4---4---4-----|
A|-4---4---4-----|-4---4---4-----|
E|-2---2---2-----|-2---2---2-----|

F#5
e e e e e e e e e e e e e e e e e e e e e e e e e e e e e e e e
e|-----------------|-----------------|-----------------|-----------------|
B|-----------------|-----------------|-----------------|-----------------|
G|4-----------------|-----------------|-----------------|-----------------|
D|4-----------------|-----4---4---4---|-----------------|-----4---4---4---|
A|-4-4-4-4-4-4-4-4-|-4-4-------------|-4-4-4-4-4-4-4-4-|-4-4-------------|
E|-2-2-2-2-2-2-2-2-|-2-2---2---2---2-|-2-2-2-2-2-2-2-2-|-2-2---2---2---2-|

e e e e e e e e e e e e e e e e
e|---------------|---------------|---------------|---------------|
B|---------------|---------------|---------------|---------------|
G|7---------------|---------------|---------------|---------------|
D|8---------------|---------------|---------------|---------------|
A|-2---2---2---2-|-0---0---0---0-|-2---2---2---2-|-0---0---0---0-|
E|---------------|---------------|---------------|---------------|

G A Bm
e e e e e e e e e e e e e e e e
e|---------------|---------------|-----------------|-----------------|
B|---------------|---------------|-----------------|-----------------|
G|---------------|---------------4---------2-2-----|-4-4-----4-4-----|
D|-------------2-|---------------4-5-5-----2-2-----|-4-4-----4-4-----|
A|-5---5---5-----|-4---4---4---2-|-5-5-----0-0-----|-2-2-----2-2-----|
E|---------------|---------------|-3-3-------------|-----------------|
*
I believe this note
is actually a Lifeson
mistake since it doesn't
really fit the pattern.
G A
e e e e
|-----------------|
|-----------------|
|---------2-2-----|
|-5-5-----2-2-----|
|-5-5-----0-0-----|
|-3-3-------------|

F#5
e e e e e e e e e e e e e e e e e e e e e e e e e e e e e e e e
e|-----------------|-----------------|-----------------|-----------------|
B|-----------------|-----------------|-----------------|-----------------|
G|-----------------|-----------------|-----------------|-----------------|
D|-----------------|-----4---4---4---|-----------------|-----4---4---4---|
A|-4-4-4-4-4-4-4-4-|-4-4-------------|-4-4-4-4-4-4-4-4-|-4-4-------------|
E|-2-2-2-2-2-2-2-2-|-2-2---2---2---2-|-2-2-2-2-2-2-2-2-|-2-2---2---2---2-|

Bm Asus2 Bm Asus2
q q q e q q q e q q q e q q q e
e|---------2---2-|-----0---0---0-|---------2---2-|-----0---0---0-|
B|---------3---3-|-----0---0---0-|---------3---3-|-----0---0---0-|
G|7---------4---4-|-----4---4---4-|---------4---4-|-----4---4---4-|
D|8-----4---------|(2)------------|-----4---------|(2)------------|
A|-2-------------|-0-------------|-2-------------|-0-------------|
E|---------------|---------------|---------------|---------------|

Bm Asus2 G A Bm
q q q e q q q e e e q e e q e e q e e e e
e|---------2---2-|-----0---0---0-|-----3-------0---|-----2-------2-2-|
B|---------3---3-|-----0---0---0-|-----3-------2---|-----3-------3-3-|
G|---------4---4-|-----4---4---4-4-----4---2-2-2---|-4-4-4---4-4-4-4-|
D|-----4---------|---------------4-5-5-5---2-2-----|-4-4-----4-4-----|
A|-2-------------|-0-------------|-5-5-----0-0-----|-2-2-----2-2-----|
E|---------------|---------------|-3-3-------------|-----------------|

G A Bm G A Bm
e e q e e q e e q e e e e e e q e e q e e q e e e e
e|-----3-----------|-----------------|-----3-------0---|-----2-------2-2-|
B|-----3-------2---|-----3-------3-3-|-----3-------2---|-----3-------3-3-|
G|-----4---2-2-2---|-4-4-4---4-4-4-4-|-----4---2-2-2---|-4-4-4---4-4-4-4-|
D|-5-5-5---2-2-2---|-4-4-4---4-4-----|-5-5-5---2-2-----|-4-4-----4-4-----|
A|-5-5-----0-0-----|-2-2-----2-2-----|-5-5-----0-0-----|-2-2-----2-2-----|
E|-3-3-------------|-----------------|-3-3-------------|-----------------|

A
G addB B G
e e e q e e e e q e e e e q e E E q e
e|-------------|-------------|-------------|-------------|
B|-------0-----|-------------|-------0-----|-------------|
G|3-----------4-|-----4-----4-|-----------4-|-----------4-|
D|4-----0-------|-------------|-----0-------|-------------|
A|---2---------|-0-0---2-----|---2---------|-0--0--2-----|
E|-3-----------|-------------|-3-----------|-------------|

Subdivisions...
A A
G addB B G addB B
e e e q e q e q e e e e q e e e e q e
e|-------------|-------------|-------------|-------------|
B|-------0-----|-------------|-------0-----|-------------|
G|-----------4-|-----4-----4-|-----------4-|-----4-----4-|
D|-----0-------|-------------|-----0-------|-------------|
A|---2---------|-0-----2-----|---2---------|-0-0---2-----|
E|-3-----------|-------------|-3-----------|-------------|

Subdivisions...
A
G G addB B
e e e q e q q q e e e q e q e q e
e|-------------|-------------|-------------|-------------|
B|-------0-----|-------------|-------0-----|-------------|
G|-----------4-|-------------|-----------4-|-----4-----4-|
D|-----0-------|-------------|-----0-------|-------------|
A|---2---------|-0---2---2---|---2---------|-0-----2-----|
E|-3-----------|-------------|-3-----------|-------------|

G G
e e e q e e e e q e e e e q e q e q
e|-------------|-------------|-------------|-------------|
B|-------0-----|-------------|-------0-----|-------------|
G|-----------4-|-----4-----4-|-----------4-|-------------|
D|-----0-------|-------------|-----0-------|-------------|
A|---2---------|-0-0---2-----|---2---------|-0---2---2---|
E|-3-----------|-------------|-3-----------|-------------|

A
G addB B G A B
e e e q e q e q e e e e Q Q Q
e|-------------|-------------|-------------|-------------|
B|-------0-----|-------------|-------0-----|-------------|
G|-----------4-|-----4-----4-|-------4-----|-2-----4-----|
D|-----0-------|-------------|-----0-------|-2-----4-----|
A|---2---------|-0-----2-----|---2---------|-0-----2-----|
E|-3-----------|-------------|-3-----------|-------------|

A B A G A B
Q Q Q Q Q Q Q Q
e|-------------|-------------|-------------|-------------|
B|-------------|-------------|-0-----0-----|-------------|
G|-2-----2-----|-4-----2-----|-4-----4-----|-2-----4-----|
D|-2-----2-----|-4-----2-----|-0-----0-----|-2-----4-----|
A|-0-----0-----|-2-----0-----|-x-----------|-0-----2-----|
E|-------------|-------------|-3-----------|-------------|

A B A G A B
Q Q Q Q Q Q Q Q
e|-------------|-------------|-3-----3-----|-------------|
B|-------------|-------------|-3-----3-----|-------------|
G|-2-----2-----|-4-----2-----|-0-----0-----|-2-----4-----|
D|-2-----2-----|-4-----2-----|-0-----------|-2-----4-----|
A|-0-----0-----|-2-----0-----|-x-----------|-0-----2-----|
E|-------------|-------------|-3-----------|-------------|

A B A G A B
Q Q Q Q Q Q Q Q
e|-------------|-------------|-3-----3-----|-------------|
B|-------------|-------------|-3-----3-----|-------------|
G|-2-----2-----|-4-----2-----|-0-----0-----|-2-----4-----|
D|-2-----2-----|-4-----2-----|-0-----------|-2-----4-----|
A|-0-----0-----|-2-----0-----|-x-----------|-0-----2-----|
E|-------------|-------------|-3-----------|-------------|

A B A
Q Q Q Q
e|-------------|-------------|
B|-------------|-------------|
G|-2-----2-----|-4-----2-----|
D|-2-----2-----|-4-----2-----|
A|-0-----0-----|-2-----0-----|
E|-------------|-------------|

Guitar Solo (all vibrato achieved via the vibrato arm)
H q q e e H e e e q
e|-------------|-------------|-------------|-------------|
B|-------------|-------------|-------------|-------------|
G|-7~----------|-9---11--9\7-|-9~----------|-4/6\4\2~----|
D|-------------|-------------|-------------|-------------|
A|-5~----------|-7---9---7\5-|-7~----------|-2/4\2\0~----|
E|-------------|-------------|-------------|-------------|

H q q e e H Q Q
e|-------------|-------------|-------------|-9-----10----|
B|-8~----------|-10--12--108-|-10----------|-------------|
G|-------------|-------------|-------------|-------------|
D|-------------|-------------|-------------|-------------|
A|-------------|-------------|-------------|-------------|
E|-------------|-------------|-------------|-------------|

Q Q Q Q Q Q H
e|-------------|-------------|-------------|-------------|
B|<5>----------|<7>----------|-------------|-------------|
G|------<5>----|------<7>----|------<7>----|---~---------|
D|-------------|-------------|-------------|<7>~---------|
A|-------------|-------------|<4>----------|-------------|
E|-------------|-------------|-------------|-------------|

e e e q e e e e q e E E E E E E q
e|-7-----7-----|-9-----7-----|-9--9--9--9--|-10-10-9-----|
B|-8-8---------|---8-------8-|-10-10-10-10-|-10-10-10----|
G|-----7-----7-|-----7-------|-9--9--9--9--|-9--9--9-----|
D|-------------|-------------|-------------|-------------|
A|-------------|-------------|-------------|-------------|
E|-------------|-------------|-------------|-------------|

D
q
e|-------------|-------------|
B|-------------|-------------|
G|-------------|-------------|
D|-12\---------|-------------|
A|-10\---------|-------------|
E|-------------|-------------|
| |
| G A B | A B A
| Q Q Q Q | Q Q Q Q
|-------------|-------------|-------------|-------------|
|-0-----0-----|-------------|-------------|-------------|
|-0-----0-----|-2-----4-----|-2-----2-----|-4-----2-----|
|-0-----0-----|-2-----4-----|-2-----2-----|-4-----2-----|
|-x-----x-----|-0-----2-----|-0-----0-----|-2-----0-----|
|-3-----3-----|-------------|-------------|-------------|

G A B A B A
Q Q Q Q Q Q E E E E
e|-------------|-------------|-------------|-------------|
B|-0-----0-----|-------------|-------------|-------------|
G|-0-----0-----|-2-----4-----|-2-----2-----|-4--4--2--2--|
D|-0-----0-----|-2-----4-----|-2-----2-----|-4--4--2--2--|
A|-x-----x-----|-0-----2-----|-0-----0-----|-2--2--0--0--|
E|-3-----3-----|-------------|-------------|-------------|

G A F#m G A B
Q Q Q Q Q Q Q Q
e|-3-----3-----|-------------|-3-----3-----|-------------|
B|-3-----3-----|-2-----------|-3-----3-----|-2-----3-----|
G|-4-----4-----|-2-----2-----|-4-----4-----|-2-----4-----|
D|-5-----5-----|-2-----4-----|-5-----5-----|-2-----4-----|
A|-5-----5-----|-0-----4-----|-5-----5-----|-0-----2-----|
E|-3-----3-----|-------2-----|-3-----3-----|-------------|

G A F#m G A B D
Q Q Q Q Q Q q q q
e|-3-----3-----|-------------|-3-----3-----|---------2---|
B|-3-----3-----|-2-----------|-3-----3-----|-2---3---3---|
G|-4-----4-----|-2-----2-----|-4-----4-----|-2---4---2---|
D|-5-----5-----|-2-----4-----|-5-----5-----|-2---4---0---|
A|-5-----5-----|-0-----4-----|-5-----5-----|-0---2-------|
E|-3-----3-----|-------2-----|-3-----3-----|-------------|


G A F#m G A B
Q Q Q Q Q Q Q Q
e|-3-----3-----|-------------|-3-----3-----|-------------|
B|-3-----3-----|-2-----------|-3-----3-----|-2-----3-----|
G|-4-----4-----|-2-----2-----|-4-----4-----|-2-----4-----|
D|-5-----5-----|-2-----4-----|-5-----5-----|-2-----4-----|
A|-5-----5-----|-0-----4-----|-5-----5-----|-0-----2-----|
E|-3-----3-----|-------2-----|-3-----3-----|-------------|

G A F#m G A B D
Q Q Q Q q q q q q q
e|-3-----3-----|-------------|-3---3---3---|---------2---|
B|-3-----3-----|-2-----------|-3---3---3---|-2---3---3---|
G|-4-----4-----|-2-----2-----|-4---4---4---|-2---4---2---|
D|-5-----5-----|-2-----4-----|-5---5---5---|-2---4---0---|
A|-5-----5-----|-0-----4-----|-5---5---5---|-0---2-------|
E|-3-----3-----|-------2-----|-3---3---3---|-------------|

G A B G A F#m
H Q Q H Q Q
e|-3-----------|-------------|-3-----------|-------------|
B|-3-----------|-2-----3-----|-3-----------|-2-----------|
G|-4-----------|-2-----4-----|-4-----------|-2-----2-----|
D|-5-----------|-2-----4-----|-5-----------|-2-----4-----|
A|-5-----------|-0-----2-----|-5-----------|-0-----4-----|
E|-3-----------|-------------|-3-----------|-------2-----|

G
He He w+
e|-3-------------|-3-------------|-3-------------|---------------|
B|-3-------------|-3-------------|-3-------------|---------------|
G|7-0-------------|-0-------------|-0-------------|---------------|
D|8-0-------------|-0-------------|-0-------------|---------------|
A|-2-------------|-2-------------|-2-------------|---------------|
E|-3-------------|-3-------------|-3-------------|---------------|

w+ e
e|---------------|-3-------------|---------------|---------3-----|
B|---------------|-3-------------|---------------|---------3-----|
G|---------------|-0-------------|---------------|---------0-----|
D|---------------|-0-------------|---------------|---------0-----|
A|---------------|-2-------------|---------------|---------2-----|
E|---------------|-3-------------|---------------|---------3-----|



************************************

| x Dead note
| * Natural harmonic
| (n) Ghost note
| / Slide up
| \ Slide down
| ~ Vibrato

************************************
Song info
Subdivisions
Rush
2001
  • Rock
  • Prog Rock
Alternative tracks
Similar songs
Judith - A Perfect Circle
Sympathy - Uriah Heep
Status Seeker - Dream Theater

Hi! Hope you enjoy backing track experience.
If you want to help us in the development of the project, feel free to donate!