World On Fire - Slash
00:00 / 00:00
Tabs and lyrics
Tunning: Standard (E A D G B e)
-------------------------------------------------------------------------------
WORLD ON FIRE - Slash
-------------------------------------------------------------------------------
Tabbed by: Gu1tar K1d
E-mail: mussyjunior@hotmail.co.uk

Tuning: Half-Step Down

[Main Riff]

eb|--------------------------------------------------------------------------------5-------|
Bb|-7h8-------8-------7h8~---------------------------------------------------------5-------|
Gb|-7h9-------9-------7h9~-9-7h8p7s5-7-5-------------------------------------5-7-----7-5---|
Db|-7---------7-------7~-----------------7-5--5h7---------7-----------5h7--7-------------7-|
Ab|-----0-0-0---0-0-0-------------------------0---0-0-0-0-0---0-0-0-0-0--------------------|
Eb|----------------------------------------------------------------------------------------|
PM--| PM--| PM----| PM----|


[Verse Riff]

eb|---------------|--------------------------------------------------------------------|
Bb|---------------|--------------------------------------------------------------------|
Gb|-------4-------|--------------------------------------------------------------------|
Db|---5-7---7-5---|--------------------------------------------------------------------|
Ab|-7-----------7-|-5-----5-----5-----7-5----------------------------------------------|
Eb|---------------|---0-0---0-0---0-0-----0-7-5-3-0-3-0-0-3-0-0-3-0-0-0-3-5-7-5-3-0----|
PM-------------------------------------------------------------|

[Bridge]

eb|---------------------------------------------------------------------------|
Bb|---------------------------------------------------------------------------|
Gb|---------------------------------------------------------------------------|
Db|-5-5-5-5-5-5-5-5-5-5-5-5-5-5-5---2-2---2-2---2-2---2-2---------------------|
Ab|-3-3-0-3-3-0-3-3-0-3-3-0-3-3-0---0-0---0-0---0-0---0-0---0-3-0-------------|
Eb|-------------------------------3-----3-----3-----3-----3-------3-----------|
PM------------------------------------------------------------|

eb|---------------------------------------------------------------------------|
Bb|---------------------------------------------------------------------------|
Gb|-------------------------------------------------------------7-------------|
Db|-5-5-5-5-5-5-5-5-5-5-5-5-5-5-5-5-7-7-7-7-7-7-7-7-4-4-4-4-4-4-7-------------|
Ab|-3-3-0-3-3-0-3-3-0-3-3-0-3-3-0-3-5-5-0-5-5-0-5-0-2-2-0-2-2-0-5-------------|
Eb|---------------------------------------------------------------------------|
PM--------------------------------------------------------|


[Chorus]

eb|-----------------------------------------------------------------------------|
Bb|-----------------------------------------------------------------------------|
Gb|-9-9-----------------------------------9-9-----------------------------------|
Db|-9-9-x-----------7-x-5-5-x-7-x---------9-9-x-----------7-x-5-5-x-7-x-4-4-x-7-|
Ab|-7-7-x-9-x-5-5-x-5-x-3-3-x-5-x-7-x-5-x-7-7-x-9-x-5-5-x-5-x-3-3-x-5-x-2-2-x-5-|
Eb|-------7-x-3-3-x---------------5-x-3-x-------7-x-3-3-x-----------------------|

eb|-----------------------------------------------------------------------------|
Bb|-----------------------------------------------------------------------------|
Gb|-9-9-----------------------------------9-9-----------------------------------|
Db|-9-9-x-----------7-x-5-5-x-7-x---------9-9-x---------------------------------|
Ab|-7-7-x-9-x-5-5-x-5-x-3-3-x-5-x-7-x-5-x-7-7-x-9-x-5-5-x-----------------------|
Eb|-------7-x-3-3-x---------------5-x-3-x-------7-x-3-3-x-----------------------|


[Chorus End 1]

eb|--------------------|
Bb|--------------------|
Gb|--------------------|
Db|-9-8-7~-7-6-4~-5-4--|
Ab|-7-6-5~-5-4-2~-3-2--|
Eb|--------------------|


[Chorus End 2]

eb|---------------------|
Bb|---------------------|
Gb|---------------------|
Db|-9-8-7~-7-6-5~-7-7---|
Ab|-7-6-5~-5-4-3~-5-5-0-|
Eb|---------------------|


[Chorus End 3]

eb|-------------------0-|
Bb|-------------------x-|
Gb|-------------------2-|
Db|-9-8-7~-7-6-5~-5-4-2-|
Ab|-7-6-5~-5-4-3~-3-2-0-|
Eb|---------------------|


[Pre-Solo]

eb|----------------------------------|
Bb|----------------------------------|
Gb|----------------------------------|
Db|-4-4-4-4-4-4-4-4-4-4-4-4-4-4-4-4--|
Ab|-2-2-0-2-2-0-2-2-0-2-2-0-2-0-0-0--| x3
Eb|----------------------------------|
PM----------------------------|

eb|----------------------------------|
Bb|----------------------------------|
Gb|----------------------------------|
Db|--4-4-4-5-5-5-6-6-6-7-7-7-8-8-9-9-|
Ab|--2-2-0-3-3-0-4-4-0-5-5-0-6-0-7-0-|
Eb|----------------------------------|


[Solo] (rhythm)

eb|---------------------------|
Bb|---------------------------|
Gb|---------------------------|
Db|-------5-----------5--4s7--|
Ab|-2--5--3--7--2--5--3--2s5--| x2
Eb|-0--3-----5--0--3----------|

eb|---------------------|
Bb|---------------------|
Gb|---------------------|
Db|-9-8-7~-7-6-4~-5-4-2~|
Ab|-7-6-5~-5-4-2~-3-2-0~|
Eb|---------------------|


[Structure]

Main Riff x4
Verse Riff x4
Bridge
Chorus (Chorus End 1)
Main Riff x2
Verse Riff x4
Bridge
Chorus (Chorus End 2)
Pre-Solo
Solo
Main Riff (first half) x4
Chorus x2 (Chorus End 3)


************************************

| x Dead note
| h Hammer-on
| p Pull-off
| b Bend
| ~ Vibrato
| s Slide
| PM Palm mute

************************************
Tunning: Standard (E A D G B e)
World on Fire - Slash
Album: World on Fire
Tabbed by moist_seagull

Tuning: Eb,Ab,Db,Gb,Bb,eb


[Intro]

eb|------------------------------------------------------|
Bb|--------------8--------8------------------------------|
Gb|--------------9--------9------9--7h8p7\5--7--5--------|
Db|----7---------7--------7------------------------7--5--|
Ab|----0-0-0-0-0----0--0---------------------------------|
Eb|------------------------------------------------------|

eb|---------------------------------------5--------------|
Bb|---------------------------------------5--7--5--------|
Gb|----7---------7--------7---------5--7-----7--5--------|
Db|----0-0-0-0-0-0--0--0--0------7-----------------7-----|
Ab|------------------------------------------------------|
Eb|------------------------------------------------------|

eb|------------------------------------------------------|
Bb|--------------8--------8------------------------------|
Gb|--------------9--------9------9--7h8p7\5--7--5--------|
Db|----7---------7--------7------------------------7--5--|
Ab|----0-0-0-0-0----0--0---------------------------------|
Eb|------------------------------------------------------|

eb|------------------------------------------------------|
Bb|------------------------------------------------------|
Gb|----7---------7--------7----------------4-------------|
Db|----0-0-0-0-0-0--0--0--0---------5--7------7--5-------|
Ab|------------------------------7------------------7----|
Eb|------------------------------------------------------|


[Verse]

PM|---------------------------------------------------------------|
eb|---------------------------------------------------------------------------|
Bb|---------------------------------------------------------------------------|
Gb|---------------------------------------------------------------------------|x4
Db|---------------------------------------------------------------------------|
Ab|----5-----5-----5-----7-5---------------------------------0-2-0------------|
Eb|------0-0---0-0---0-0-----0-7-5-3-0-3-0-0-3-0-0-3-0-0-0-3-------3-0--------|

eb|---------------------------------------------------------------------------|
Bb|---------------------------------------------------------------------------|
Gb|---------------------------------------------------------------------------|
Db|----5-5-5-5-5-5-5-5-5-5-5-5-5-5-5---2-2---2-2---2-2---2-2---2-2-2----------|
Ab|----3-3-0-3-3-0-3-3-0-3-3-0-3-3-0---0-0---0-0---0-0---0-0---0-3-0----------|
Eb|----------------------------------3-----3-----3-----3-----3-------3--------|

eb|---------------------------------------------------------------------------|
Bb|---------------------------------------------------------------------------|
Gb|---------------------------------------------------------------------------|
Db|----5-5-5-5-5-5-5-5-5-5-5-5-5/6-7-7-0-7-7-0-7-0-4-4-0-4-4-0-4-0------------|
Ab|----3-3-0-3-3-0-3-3-0-3-3-0-3/4-5-5-0-5-5-0-5-0-2-2-0-2-2-0-2-0------------|
Eb|---------------------------------------------------------------------------|


[Chorus]

eb|---------------------------------------------------------------------------|
Bb|---------------------------------------------------------------------------|
Gb|---------------------------------------------------------------------------|
Db|----9--------9-----------------7--5--------5--7----------------------------|
Ab|----7--------7--9--5--------5--5--3--------3--5--7--------7\5--------------|
Eb|----------------7--3--------3--------------------5--------5\3--------------|

eb|---------------------------------------------------------------------------|
Bb|---------------------------------------------------------------------------|
Gb|---------------------------------------------------------------------------|
Db|----------------4--------------7--5--------5--7--4--------5/7--------------|
Ab|----2--------2--2--5--------5--5--3--------3--5--2--------3/5--------------|
Eb|----0--------0-----3--------3----------------------------------------------|

eb|---------------------------------------------------------------------------|
Bb|---------------------------------------------------------------------------|
Gb|---------------------------------------------------------------------------|
Db|----9--------9-----------------7--5--------5--7----------------------------|
Ab|----7--------7--9--5--------5--5--3--------3--5--7--------7\5--------------|
Eb|----------------7--3--------3--------------------5--------5\3--------------|

eb|---------------------------------------------------------------------------|
Bb|---------------------------------------------------------------------------|
Gb|---------------------------------------------------------------------------|
Db|----------------4--------------9-8-7--------7-7-5-4------------------------|
Ab|----2--------2--2--5--------5--7-6-5--------5-5-3-2---------3----2---------|
Eb|----0--------0-----3--------3----------------------------------------------|


[Verse 2]

PM|---------------------------------------------------------------|
eb|---------------------------------------------------------------------------|
Bb|---------------------------------------------------------------------------|
Gb|---------------------------------------------------------------------------|x4
Db|---------------------------------------------------------------------------|
Ab|----5-----5-----5-----7-5---------------------------------0-2-0------------|
Eb|------0-0---0-0---0-0-----0-7-5-3-0-3-0-0-3-0-0-3-0-0-0-3-------3-0--------|

eb|---------------------------------------------------------------------------|
Bb|---------------------------------------------------------------------------|
Gb|---------------------------------------------------------------------------|
Db|----5-5-5-5-5-5-5-5-5-5-5-5-5-5-5---2-2---2-2---2-2---2-2---2-2-2----------|
Ab|----3-3-0-3-3-0-3-3-0-3-3-0-3-3-0---0-0---0-0---0-0---0-0---0-3-0----------|
Eb|----------------------------------3-----3-----3-----3-----3-------3--------|

eb|---------------------------------------------------------------------------|
Bb|---------------------------------------------------------------------------|
Gb|---------------------------------------------------------------------------|
Db|----5-5-5-5-5-5-5-5-5-5-5-5-5/6-7-7-0-7-7-0-7-0-4-4-0-4-4-0-4-0------------|
Ab|----3-3-0-3-3-0-3-3-0-3-3-0-3/4-5-5-0-5-5-0-5-0-2-2-0-2-2-0-2-0------------|
Eb|---------------------------------------------------------------------------|


[Chorus]

eb|---------------------------------------------------------------------------|
Bb|---------------------------------------------------------------------------|
Gb|---------------------------------------------------------------------------|
Db|----9--------9-----------------7--5--------5--7----------------------------|
Ab|----7--------7--9--5--------5--5--3--------3--5--7--------7\5--------------|
Eb|----------------7--3--------3--------------------5--------5\3--------------|

eb|---------------------------------------------------------------------------|
Bb|---------------------------------------------------------------------------|
Gb|---------------------------------------------------------------------------|
Db|----------------4--------------7--5--------5--7--4--------5/7--------------|
Ab|----2--------2--2--5--------5--5--3--------3--5--2--------3/5--------------|
Eb|----0--------0-----3--------3----------------------------------------------|

eb|---------------------------------------------------------------------------|
Bb|---------------------------------------------------------------------------|
Gb|---------------------------------------------------------------------------|
Db|----9--------9-----------------7--5--------5--7----------------------------|
Ab|----7--------7--9--5--------5--5--3--------3--5--7--------7\5--------------|
Eb|----------------7--3--------3--------------------5--------5\3--------------|

eb|---------------------------------------------------------------------------|
Bb|---------------------------------------------------------------------------|
Gb|---------------------------------------------------------------------------|
Db|----------------4--------------9-8-7--------7-7-6-5---------5----7---------|
Ab|----2--------2--2--5--------5--7-6-5--------5-5-4-3---------3----5---------|
Eb|----0--------0-----3--------3----------------------------------------------|


[Pre-solo]

eb|--------------------------------------|
Bb|--------------------------------------|
Gb|--------------------------------------|x3
Db|----4-4-4-4-4-4-4-4-4-4-4-4-4-4-4-4---|
Ab|----2-2-0-2-2-0-2-2-0-2-2-0-2-0-0-2---|
Eb|--------------------------------------|

eb|--------------------------------------|
Bb|--------------------------------------|
Gb|--------------------------------------|
Db|----4-4-0-5-5-0-6-6-0-7-7-0-7-0-7-----|
Ab|----2-2-0-3-3-0-4-4-0-5-5-0-5-0-5-----|
Eb|--------------------------------------|


[Main Solo]


eb|----0-----0-----0-----0-----0-----0-----0---------8b10---7-6-5----5-------------------|
Bb|------0h3---0h3---0h3---0h3---0h3---0h3---0h3---0-------------8-5---8b10---5\3---/5---|
Gb|-------------------------------------------------------------------------------4------|
Db|--------------------------------------------------------------------------------------|
Ab|--------------------------------------------------------------------------------------|
Eb|--------------------------------------------------------------------------------------|

eb|------------------------------------------------------------------------------------------------|
Bb|--------0-----0-----0-----0-2h3-0h2h3-0h2h3-3h5-0h3h5-0h3h5-5h7-0h5h7-0h5h7-7h8-0h7h8-0h7h8/10--|
Gb|----3h4---3h4---3h4---3h4-----------------------------------------------------------------------|
Db|------------------------------------------------------------------------------------------------|
Ab|------------------------------------------------------------------------------------------------|
Eb|------------------------------------------------------------------------------------------------|

eb|-------------------------------|
Bb|----10b12r10--8--9--10b12------|
Gb|-------------------------------|
Db|-------------------------------|
Ab|-------------------------------|
Eb|-------------------------------|

eb|----------12-------------12h15p12-------12-------------12h15p12-------12-------------12h15p12----|
Bb|----15b17----15-12----------------15b17----15-12----------------15b17----15-12-------------------|
Gb|-------------------14b16-------------------------14b16-------------------------14b16-------------|
Db|-------------------------------------------------------------------------------------------------|
Ab|-------------------------------------------------------------------------------------------------|
Eb|-------------------------------------------------------------------------------------------------|

eb|----------12h15p12---------12-14-12h14p12----12-------12---------------|
Bb|----15b17----------15b17------------------15----15b17----15-12h15p12---|
Gb|-----------------------------------------------------------------------|
Db|-----------------------------------------------------------------------|
Ab|-----------------------------------------------------------------------|
Eb|-----------------------------------------------------------------------|

eb|----------------12-------------------------------------------|
Bb|-------12----------15-12-------------------------------------|
Gb|----14----14b16----------14b16r14p12-------------------------|
Db|-------------------------------------14--14p12---------------|
Ab|------------------------------------------------14p12-14~~---|
Eb|-------------------------------------------------------------|

eb|----19b22-----17b19----15b17---14b15r14b15--14-12-14-12h14p12----12----------------------------------|
Bb|--------------------------------------------------------------15----15b17-15--12-15-12h15p12---------|
Gb|-----------------------------------------------------------------------------------------------------|
Db|-----------------------------------------------------------------------------------------------------|
Ab|-----------------------------------------------------------------------------------------------------|
Eb|-----------------------------------------------------------------------------------------------------|

eb|----------------------------------------------|
Bb|----------------14b15r14b15r14b15r14b15r14----|
Gb|----14b16r14-12-14b15r14b15r14b15r14b15r14----|
Db|----------------------------------------------|
Ab|----------------------------------------------|
Eb|----------------------------------------------|


[Bridge]

PM|----------------------------------------------------|
eb|----------------------------------------------------------------|
Bb|----------------------------------------------------------5~~---|
Gb|----------4--------4--------4--------4--------4-----------2~~---|
Db|----0--2-----0--2-----0--2-----0--2-----0--2-----0--2--0--------|
Ab|----------------------------------------------------------------|
Eb|----------------------------------------------------------------|

eb|----3-------------2-----------------------|
Bb|----3-------------3-----------------------|
Gb|----0-------------2--------------2--------|
Db|------------------0--------------2--------|
Ab|---------------------------------0--------|
Eb|------------------------------------------|

PM|---------------------------------------|
eb|----------------------------------------------|
Bb|----------------------------------------------|
Gb|----------------------------------------------|x4
Db|----------------------------------------------|
Ab|----0-0-0-0-0-0-0-0-0-0-0-0-0-0-0-0-0-0-0-0---|
Eb|----------------------------------------------|

eb|---------------------------------------------------|
Bb|----8---------8--------8---------------------------|
Gb|----9---------9--------9--------9-7h8p7\5--7-5-----|x4
Db|----7---------7--------7-----------------------7-5-|
Ab|------0-0-0-0----0--0------------------------------|
Eb|---------------------------------------------------|


[Chorus 3]

eb|---------------------------------------------------------------------------|
Bb|---------------------------------------------------------------------------|
Gb|---------------------------------------------------------------------------|
Db|----9--------9-----------------7--5--------5--7----------------------------|
Ab|----7--------7--9--5--------5--5--3--------3--5--7--------7\5--------------|
Eb|----------------7--3--------3--------------------5--------5\3--------------|

eb|---------------------------------------------------------------------------|
Bb|---------------------------------------------------------------------------|
Gb|---------------------------------------------------------------------------|
Db|----------------4--------------7--5--------5--7--4--------5/7--------------|
Ab|----2--------2--2--5--------5--5--3--------3--5--2--------3/5--------------|
Eb|----0--------0-----3--------3----------------------------------------------|

eb|---------------------------------------------------------------------------|
Bb|---------------------------------------------------------------------------|
Gb|---------------------------------------------------------------------------|
Db|----9--------9-----------------7--5--------5--7----------------------------|
Ab|----7--------7--9--5--------5--5--3--------3--5--7--------7\5--------------|
Eb|----------------7--3--------3--------------------5--------5\3--------------|

eb|---------------------------------------------------------------------------|
Bb|---------------------------------------------------------------------------|
Gb|---------------------------------------------------------------------------|
Db|----------------4--------------9-8-7--------7-7-6-5--------5----7----------|
Ab|----2--------2--2--5--------5--7-6-5--------5-5-4-3--------3----5----------|
Eb|----0--------0-----3--------3----------------------------------------------|


[Outro Solo]

eb|-------------------------------------------------------------------------------------|
Bb|-------------------------------------------------------------------------------------|
Gb|----7/9---7/9---11/12--11/12--11/12--14\12---12/14---14/16---19\16\14---14/16---16---|
Db|-------------------------------------------------------------------------------------|
Ab|----5/7---5/7---9/10---9/10---9/10---12\10---10/12---12/14---17\14\12---12/14---14---|
Eb|-------------------------------------------------------------------------------------|

eb|---------------------------------------------------------------------------------------------|
Bb|---------------------------------------------------------------------------------------------|
Gb|----19/21--21--19/21--21--19/21--21--19/21--21--19/21--21--19/21--21--19/21--21--19/21--21---|
Db|---------------------------------------------------------------------------------------------|
Ab|----17/19------17/19------17/19------17/19------17/19------17/19------17/19------17/19-------|
Eb|---------------------------------------------------------------------------------------------|

eb|----------------------------------------------|
Bb|----------------------------------------------|
Gb|----19----18----17----16~~~~~-----------------|
Db|----------------------------------------------|
Ab|----------------------------------------------|
Eb|----------------------------------------------|

eb|-------------------------------------------------------------------------------------------------19--|
Bb|----------17-------17-------17-------17-------17-------17-20b22-17-------17-20b22-17-------20b22-----|
Gb|----19b21----19b21----19b21----19b21----19b21----19b21-------------19b21-------------19b21-----------|
Db|-----------------------------------------------------------------------------------------------------|
Ab|-----------------------------------------------------------------------------------------------------|
Eb|-----------------------------------------------------------------------------------------------------|

eb|----17h19p17----17-------17----------------------------------------------17--------------------------|
Bb|-------------20----20b22----20-17h20p17----17-------17-20-17h20p17----17----20b22--------15b17-------|
Gb|----------------------------------------19----19b21----------------19--------------------------------|
Db|-----------------------------------------------------------------------------------------------------|
Ab|-----------------------------------------------------------------------------------------------------|
Eb|-----------------------------------------------------------------------------------------------------|

eb|---------------------------------------------------------------------------|
Bb|----13b15--------10b12--------10----7--8----7b8r7b8r7--5--7--5h7p5---5-----|
Gb|-------------------------------------------------------------------7---7---|
Db|---------------------------------------------------------------------------|
Ab|---------------------------------------------------------------------------|
Eb|---------------------------------------------------------------------------|

eb|----------------------------------------------------------------------|
Bb|----------------------------------------------------------------------|
Gb|----6--5--4-----------------------------------------------------8b9---|
Db|-------------8--7--5-----7b9--7p5--7~-------/11~----------------8b9---|
Ab|----------------------7-----------------------------------------------|
Eb|----------------------------------------------------------------------|



************************************
| h Hammer-on
| p Pull-off
| r Release
| b Bend
| / Slide up
| \ Slide down
| ~ Vibrato
************************************
Song info
World On Fire
Slash
2001
  • Blues
  • Rock
  • Alternative Rock
  • Blues Rock
  • Classic Rock
  • Hard Rock
  • Heavy Metal
  • Rock & Roll
Similar songs
Home - Iggy Pop
Feuer Frei - Rammstein
Wendell Gee - R.E.M.

Hi! Hope you enjoy backing track experience.
If you want to help us in the development of the project, feel free to donate!