Help - The Beatles
00:00 / 00:00
Tabs and lyrics
Tunning: Standard (E A D G B e)
--------------------------------------------------------

THE BEATLES - HELP (Lennon & McCartney) from HELP album.
Released on August 6th, 1965.

--------------------------------------------------------

Tabbed by:PJVillanueva


Help, I need somebody,
Help, not just anybody,
Help, you know I need someone, help.

When I was younger, so much younger than today,
I never needed anybody's help in any way.
But now these days are gone, I'm not so self assured,
Now I find I've changed my mind and opened up the doors.

Help me if you can, I'm feeling down
And I do appreciate you being round.
Help me, get my feet back on the ground,
Won't you please, please help me?

And now my life has changed in oh so many ways,
My independence seems to vanish in the haze.
But every now and then I feel so insecure,
I know that I just need you like I've never done before.

Help me if you can, I'm feeling down
And I do appreciate you being round.
Help me, get my feet back on the ground,
Won't you please, please help me.

When I was younger, so much younger than today,
I never needed anybody's help in any way.
But now these days are gone, I'm not so self assured,
Now I find I've changed my mind and opened up the doors.

Help me if you can, I'm feeling down
And I do appreciate you being round.
Help me, get my feet back on the ground,
Won't you please, please help me, help me, help me, oooommmm.



Bm
e|2------ 2------ 2---2-- 2------|2------ 2------ 2---2-- 2------|
B|3-------3-------3---3---3------|3-------3-------3---3---3------|
G|4-------4-------4---4---4------|4-------4-------4---4---4------|
D|4-------4-------4---4---4------|4-------4-------4---4---4------|
A|2-------2-------2---2---2------|2-------2-------2---2---2------|
E|-------------------------------|-------------------------------|

e|------- ------- ------- -------|------- ------- ------- -------|
B|-------------------------------|-------------------------------|
G|-------------------------------|-------------------------------|
D|-------------------------------|-------------------------------|
A|-------------------------------|2---------------0--------------|
E|-------------------------------|-------------------------------|
I need somebody
(Help!)


G
e|3------ 3------ 3---3-- 3---3--|3------ 3---3-- 3---3-- 3---3--|
B|3-------3-------3---3---3---3--|3-------3---3---3---3---3---3--|
G|0-------0-------0---0---0---0--|0-------0---0---0---0---0---0--|
D|0-------0-------0---0---0---0--|0-------0---0---0---0---0---0--|
A|2-------2-------2---2---2---2--|2-------2---2---2---2---2---2--|
E|3-------3-------3---3---3---3--|3-------3---3---3---3---3---3--|

e|------- ------- ------- -------|------- ------- ------- -------|
B|-------------------------------|-------------------------------|
G|-------------------------------|-------------------------------|
D|-------------------------------|-------------------------------|
A|-------------------------------|-------------------------------|
E|3------------------------------|3---------------2--------------|
not just
anybody
(Help!)


E
e|0------ 0------ ----0-- ----0--|0------ 0------ ----0-- 0------|
B|0-------0-----------0-------0--|0-------0-----------0---0------|
G|1-------1-----------1-------1--|1-------1-----------1---1------|
D|2-------2-----------2-------2--|2-------2-----------2---2------|
A|2-------2-----------2-------2--|2-------2-----------2---2------|
E|0-------0-----------0-------0--|0-------0-----------0---0------|

e|------- ------- ------- -------|------- ------- ------- -------|
B|-------------------------------|-------------------------------|
G|-------------------------------|-------------------------------|
D|-------------------------------|-------------------------------|
A|-------------------------------|-------------------------------|
E|0------------------------------|-------------------------------|
you know need someone
I
(Help!)


A
e|0------ ------- ------- -------|------- ------- ------- -------|
B|2------------------------------|-------------------------------|
G|2------------------------------|-------------------------------|
D|2------------------------------|-------------------------------|
A|0------------------------------|-------------------------------|
E|-------------------------------|-------------------------------|

e|------- ------- ------- -------|------- ------- ------- -------|
B|------------0---------------0--|------------0---------------0--|
G|--------0---------------0------|--------0---------------0------|
D|----5---------------4----------|----4---------------2----------|
A|7---------------6--------------|5---------------4--------------|
E|-------------------------------|-------------------------------|
Help!
(Help!)


00:10
A
e|0------ 0------ ----0-- -------|0------ 0---0-- ----0-- ----0--|
B|2-------2-----------2----------|2-------2---2-------2-------2--|
G|2-------2-----------2----------|2-------2---2-------2-------2--|
D|2-------2-----------2----------|2-------2---2-------2-------2--|
A|0-------0-----------0----------|0-------0---0-------0-------0--|
E|-------------------------------|-------------------------------|
When I was younger, so much
(When when was
I


Dbm
e|4------ 4------ ----4-- ----4--|4------ ----4-- ----4-- ----2--|
B|5-------5-----------5-------5--|5-----------5-------5-------2--|
G|6-------6-----------6-------6--|6-----------6-------6-------2--|
D|6-------6-----------6-------6--|6-----------6-------6-------4--|
A|4-------4-----------4-------4--|4-----------4-------4-------4--|
E|-------------------------------|----------------------------2--|
younger than today
young I never



F#m
e|2------ 2------ ----2-- ----2--|2------ ----2-- ----2-- -------|
B|2-------2-----------2-------2--|2-----------2-------2----------|
G|2-------2-----------2-------2--|2-----------2-------2----------|
D|4-------4-----------4-------4--|4-----------4-------4----------|
A|4-------4-----------4-------4--|4-----------4-------4----------|
E|2-------2-----------2-------2--|2-----------2-------2----------|
I never needed anybody's
need



D G A
e|2------ ------- 3---3-- ----0--|----0-- 0------ 0------ 0------|
B|3---------------3---3-------2--|----2---2-------2-------2------|
G|2---------------0---0-------2--|----2---2-------2-------2------|
D|0---------------0---0-------2--|----2---2-------2-------2------|
A|----------------2---2-------0--|----0---0-------0-------0------|
E|----------------3---3----------|-------------------------------|
help in any way
help in any way)


00:21

e|0------ 0------ ----0-- -------|0------ 0---0-- 0---0-- 0---0--|
B|2-------2-----------2----------|2-------2---2---2---2---2---2--|
G|2-------2-----------2----------|2-------2---2---2---2---2---2--|
D|2-------2-----------2----------|2-------2---2---2---2---2---2--|
A|0-------0-----------0----------|0-------0---0---0---0---0---0--|
E|-------------------------------|-------------------------------|
But now these days have gone I'm
(Now these days have
gone


Dbm
e|4------ 4------ ----4-- ----4--|4------ ----4-- ----4-- ----2--|
B|5-------5-----------5-------5--|5-----------5-------5-------2--|
G|6-------6-----------6-------6--|6-----------6-------6-------2--|
D|6-------6-----------6-------6--|6-----------6-------6-------4--|
A|4-------4-----------4-------4--|4-----------4-------4-------4--|
E|-------------------------------|----------------------------2--|
not so self assured
And now I



F#m
e|2------ 2------ ----2-- ----2--|2------ ----2-- 2---2-- 2------|
B|2-------2-----------2-------2--|2-----------2---2---2---2------|
G|2-------2-----------2-------2--|2-----------2---2---2---2------|
D|4-------4-----------4-------4--|4-----------4---4---4---4------|
A|4-------4-----------4-------4--|4-----------4---4---4---4------|
E|2-------2-----------2-------2--|2-----------2---2---2---2------|
Now I find I've changed mind And
my
find And


x x x x x x x
D G A
e|2------ 2------ 3---3-- ----0--|0---0-- 0------ 0------ 0------|
B|3-------3-------3---3-------2--|2---2---2-------2-------2------|
G|2-------2-------0---0-------2--|2---2---2-------2-------2------|
D|0-------0-------0---0-------2--|2---2---2-------2-------2------|
A|----------------2---2-------0--|----0---0-------0-------0------|
E|----------------3---3----------|-------------------------------|
opened up the doors
opened up the doors)



00:30
Bm
e|2------ 2------ 2---2-- 2------|2------ 2------ 2---2-- 2---2--|
B|3-------3-------3---3---3------|3-------3-------3---3---3---3--|
G|4-------4-------4---4---4------|4-------4-------4---4---4---4--|
D|4-------4-------4---4---4------|4-------4-------4---4---4---4--|
A|2-------2-------2---2---2------|2-------2-------2---2---2---2--|
E|-------------------------------|-------------------------------|
Help me If you can, I'm feeling





e|2------ 2------ 2---2-- 2---2--|2------ 2------ 2---2-- 2------|
B|3-------3-------3---3---3---3--|3-------3-------3---3---3------|
G|4-------4-------4---4---4---4--|4-------4-------4---4---4------|
D|4-------4-------4---4---4---4--|4-------4-------4---4---4------|
A|2-------2-------2---2---2---2--|2-------2-------2---2---2------|
E|-------------------------------|-------------------------------|

e|------- ------- ------- -------|------- ------- ------- -------|
B|-------------------------------|-------------------------------|
G|-------------------------------|-------------------------------|
D|-------------------------------|-------------------------------|
A|-------------------------------|2---------------0--------------|
E|-------------------------------|-------------------------------|
down And I do



G
e|3------ 3------ 3---3-- 3------|3------ 3------ 3---3-- 3---3--|
B|3-------3-------3---3---3------|3-------3-------3---3---3---3--|
G|0-------0-------0---0---0------|0-------0-------0---0---0---0--|
D|0-------0-------0---0---0------|0-------0-------0---0---0---0--|
A|2-------2-------2---2---2------|2-------2-------2---2---2---2--|
E|3-------3-------3---3---3------|3-------3-------3---3---3---3--|

e|------- ------- ------- -------|------- ------- ------- -------|
B|-------------------------------|-------------------------------|
G|-------------------------------|-------------------------------|
D|-------------------------------|-------------------------------|
A|-------------------------------|-------------------------------|
E|3------------------------------|-------------------------------|
appreciate you being



e|3------ 3------ 3---3-- 3---3--|3---3-- 3------ 3------ 3------|
B|3-------3-------3---3---3---3--|3---3---3-------3-------3------|
G|0-------0-------0---0---0---0--|0---0---0-------0-------0------|
D|0-------0-------0---0---0---0--|0---0---0-------0-------0------|
A|2-------2-------2---2---2---2--|2---2---2-------2-------2------|
E|3-------3-------3---3---3---3--|3---3---3-------3-------3------|

e|------- ------- ------- -------|------- ------- ------- -------|
B|-------------------------------|-------------------------------|
G|-------------------------------|-------------------------------|
D|-------------------------------|-------------------------------|
A|-------------------------------|-------------------------------|
E|-------------------------------|3---------------2--------------|
round



00:40
E
e|0------ 0---0-- 0---0-- 0------|0------ 0------ 0---0-- 0---0--|
B|0-------0---0---0---0---0------|0-------0-------0---0---0---0--|
G|1-------1---1---1---1---1------|1-------1-------1---1---1---1--|
D|2-------2---2---2---2---2------|2-------2-------2---2---2---2--|
A|2-------2---2---2---2---2------|2-------2-------2---2---2---2--|
E|0-------0---0---0---0---0------|0-------0-------0---0---0---0--|

e|------- ------- ------- -------|------- ------- ------- -------|
B|-------------------------------|-------------------------------|
G|-------------------------------|-------------------------------|
D|-------------------------------|-------------------------------|
A|-------------------------------|-------------------------------|
E|0------------------------------|-------------------------------|
Help me get my feet back on the ground
(Help me get my feet back on the ground





e|0------ 0------ 0---0-- 0---0--|0------ 0------ 0---0-- 0------|
B|0-------0-------0---0---0---0--|0-------0-------0---0---0------|
G|1-------1-------1---1---1---1--|1-------1-------1---1---1------|
D|2-------2-------2---2---2---2--|2-------2-------2---2---2------|
A|2-------2-------2---2---2---2--|2-------2-------2---2---2------|
E|0-------0-------0---0---0---0--|0-------0-------0---0---0------|
Won't you
Won't you



A
e|0------ ------- ------- -------|------- ------- ------- -------|
B|2------------------------------|-------------------------------|
G|2------------------------------|-------------------------------|
D|2------------------------------|-------------------------------|
A|0------------------------------|-------------------------------|
E|-------------------------------|-------------------------------|

e|------- ------- ------- -------|------- ------- ------- -------|
B|------------0---------------0--|------------0---------------0--|
G|--------0---------------0------|--------0---------------0------|
D|----5---------------4----------|----4---------------2----------|
A|7---------------6--------------|5---------------4--------------|
E|-------------------------------|-------------------------------|
please, please, help me?
please, please, help me?)




A Asus2 A Asus2 A Asus2
e|0------ 0------ 0---0-- -------|0------ ----0-- ----0-- ----0--|
B|2-------2-------0---0----------|2-----------0-------2-------0--|
G|2-------2-------2---2----------|2-----------2-------2-------2--|
D|2-------2-------2---2----------|2-----------2-------2-------2--|
A|0-------0-------0---0----------|0-----------0-------0-------0--|
E|-------------------------------|-------------------------------|



00:51
A
e|0------ 0------ ----0-- -------|0------ ----0-- ----0-- -------|
B|2-------2-----------2----------|2-----------2-------2----------|
G|2-------2-----------2----------|2-----------2-------2----------|
D|2-------2-----------2----------|2-----------2-------2----------|
A|0-------0-----------0----------|0-----------0-------0----------|
E|-------------------------------|-------------------------------|
And now my life has changed in oh
(Now my life has



Dbm
e|4------ 4------ ----4-- ----4--|4------ ----4-- ----4-- ----2--|
B|5-------5-----------5-------5--|5-----------5-------5-------2--|
G|6-------6-----------6-------6--|6-----------6-------6-------2--|
D|6-------6-----------6-------6--|6-----------6-------6-------4--|
A|4-------4-----------4-------4--|4-----------4-------4-------4--|
E|-------------------------------|----------------------------2--|
so many ways
changed my inde...........


F#m
e|2------ 2------ ----2-- ----2--|2------ 2---2-- ----2-- -------|
B|2-------2-----------2-------2--|2-------2---2-------2----------|
G|2-------2-----------2-------2--|2-------2---2-------2----------|
D|4-------4-----------4-------4--|4-------4---4-------4----------|
A|4-------4-----------4-------4--|4-------4---4-------4----------|
E|2-------2-----------2-------2--|2-------2---2-------2----------|
My independence seems to
pend .................................. dence seems to


D G A
e|2------ ----2-- 3------ 3------|----0-- 0------ 0------ 0------|
B|3-----------3---3-------3------|----2---2-------2-------2------|
G|2-----------2---0-------0------|----2---2-------2-------2------|
D|0-----------0---0-------0------|----2---2-------2-------2------|
A|----------------2-------2------|----0---0-------0-------0------|
E|----------------3-------3------|-------------------------------|
vanish in the haze
vanish in the haze)


01:01

e|0------ 0------ ----0-- -------|0------ ----0-- ----0-- ---0---|
B|2-------2-----------2----------|2-----------2-------2------2---|
G|2-------2-----------2----------|2-----------2-------2------2---|
D|2-------2-----------2----------|2-----------2-------2------2---|
A|0-------0-----------0----------|0-----------0-------0------0---|
E|-------------------------------|-------------------------------|
But every now and then I
(But now and


Dbm
e|4------ 4------ ----4-- -------|4------ ----4-- ----4-- -------|
B|5-------5-----------5----------|5-----------5-------5-------0--|
G|6-------6-----------6----------|6-----------6-------6-------0--|
D|6-------6-----------6----------|6-----------6-------6-------0--|
A|4-------4-----------4----------|4-----------4-------4----------|
E|-------------------------------|-------------------------------|
feel so insecure
then I know
that


F#m
e|2------ 2------ ----2-- ----2--|2------ ----2-- ----2-- 2------|
B|2-------2-----------2-------2--|2-----------2-------2---2------|
G|2-------2-----------2-------2--|2-----------2-------2---2------|
D|4-------4-----------4-------4--|4-----------4-------4---4------|
A|4-------4-----------4-------4--|4-----------4-------4---4------|
E|2-------2-----------2-------2--|2-----------2-------2---2------|
I know I just you like I've
that need
I I've


D G A
e|2---2-- ----3-- ------- 3------|----0-- 0------ 0------ 0------|
B|3---3-------3-----------3------|----2---2-------2-------2------|
G|2---2-------0-----------0------|----2---2-------2-------2------|
D|0---0-------0-----------0------|----2---2-------2-------2------|
A|------------2-----------2------|----0---0-------0-------0------|
E|------------3-----------3------|-------------------------------|
never done before
never done before)


01:11
Bm
e|2------ 2------ 2---2-- 2------|2------ 2------ 2---2-- 2---2--|
B|3-------3-------3---3---3------|3-------3-------3---3---3---3--|
G|4-------4-------4---4---4------|4-------4-------4---4---4---4--|
D|4-------4-------4---4---4------|4-------4-------4---4---4---4--|
A|2-------2-------2---2---2------|2-------2-------2---2---2---2--|
E|-------------------------------|-------------------------------|
Help me If you can, I'm feeling




e|2------ 2------ 2---2-- 2---2--|2------ 2------ 2---2-- 2------|
B|3-------3-------3---3---3---3--|3-------3-------3---3---3------|
G|4-------4-------4---4---4---4--|4-------4-------4---4---4------|
D|4-------4-------4---4---4---4--|4-------4-------4---4---4------|
A|2-------2-------2---2---2---2--|2-------2-------2---2---2------|
E|-------------------------------|-------------------------------|

e|------- ------- ------- -------|------- ------- ------- -------|
B|-------------------------------|-------------------------------|
G|-------------------------------|-------------------------------|
D|-------------------------------|-------------------------------|
A|-------------------------------|2---------------0--------------|
E|-------------------------------|-------------------------------|
down And I do



G
e|3------ 3------ 3---3-- 3------|3------ 3------ 3---3-- 3------|
B|3-------3-------3---3---3------|3-------3-------3---3---3------|
G|0-------0-------0---0---0------|0-------0-------0---0---0------|
D|0-------0-------0---0---0------|0-------0-------0---0---0------|
A|2-------2-------2---2---2------|2-------2-------2---2---2------|
E|3-------3-------3---3---3------|3-------3-------3---3---3------|

e|------- ------- ------- -------|------- ------- ------- -------|
B|-------------------------------|-------------------------------|
G|-------------------------------|-------------------------------|
D|-------------------------------|-------------------------------|
A|-------------------------------|-------------------------------|
E|3------------------------------|-------------------------------|
appreciate you being



e|3------ 3------ 3---3-- 3---3--|3------ 3------ 3---3-- 3---3--|
B|3-------3-------3---3---3---3--|3-------3-------3---3---3---3--|
G|0-------0-------0---0---0---0--|0-------0-------0---0---0---0--|
D|0-------0-------0---0---0---0--|0-------0-------0---0---0---0--|
A|2-------2-------2---2---2---2--|2-------2-------2---2---2---2--|
E|3-------3-------3---3---3---3--|3-------3-------3---3---3---3--|

e|------- ------- ------- -------|------- ------- ------- -------|
B|-------------------------------|-------------------------------|
G|-------------------------------|-------------------------------|
D|-------------------------------|-------------------------------|
A|-------------------------------|-------------------------------|
E|-------------------------------|3---------------2--------------|
round


01:21
E
e|0------ 0------ 0---0-- 0------|0------ 0------ 0---0-- 0------|
B|0-------0-------0---0---0------|0-------0-------0---0---0------|
G|1-------1-------1---1---1------|1-------1-------1---1---1------|
D|2-------2-------2---2---2------|2-------2-------2---2---2------|
A|2-------2-------2---2---2------|2-------2-------2---2---2------|
E|0-------0-------0---0---0------|0-------0-------0---0---0------|

e|------- ------- ------- -------|------- ------- ------- -------|
B|-------------------------------|-------------------------------|
G|-------------------------------|-------------------------------|
D|-------------------------------|-------------------------------|
A|-------------------------------|-------------------------------|
E|0------------------------------|-------------------------------|
Help me get my feet back on the ground
Help me get my feet back on the ground



e|0------ 0------ 0---0-- 0------|0------ 0------ 0---0-- 0------|
B|0-------0-------0---0---0------|0-------0-------0---0---0------|
G|1-------1-------1---1---1------|1-------1-------1---1---1------|
D|2-------2-------2---2---2------|2-------2-------2---2---2------|
A|2-------2-------2---2---2------|2-------2-------2---2---2------|
E|0-------0-------0---0---0------|0-------0-------0---0---0------|
Won't you
Won't you


A
e|0------ ------- ------- -------|------- ------- ------- -------|
B|2------------------------------|-------------------------------|
G|2------------------------------|-------------------------------|
D|2------------------------------|-------------------------------|
A|0------------------------------|-------------------------------|
E|-------------------------------|-------------------------------|

e|------- ------- ------- -------|------- ------- ------- -------|
B|------------0---------------0--|------------0---------------0--|
G|--------0---------------0------|--------0---------------0------|
D|----5---------------4----------|----4---------------2----------|
A|7---------------6--------------|5---------------4--------------|
E|-------------------------------|-------------------------------|
please, please, help me?
please, please, help me?)


A Asus2 A Asus2 A Asus2
e|0------ 0------ ----0-- ----0--|0------ 0---0-- ----0-- ----0--|
B|2-------2-----------0-------0--|2-------0---0-------2-------0--|
G|2-------2-----------2-------2--|2-------2---2-------2-------2--|
D|2-------2-----------2-------2--|2-------2---2-------2-------2--|
A|0-------0-----------0-------0--|0-------0---0-------0-------0--|
E|-------------------------------|-------------------------------|



01:31
A
e|0------ 0------ ----0-- -------|0------ ----0-- ----0-- -------|
B|2-------2-----------2----------|2-----------2-------2----------|
G|2-------2-----------2----------|2-----------2-------2----------|
D|2-------2-----------2----------|2-----------2-------2----------|
A|0-------0-----------0----------|0-----------0-------0----------|
E|-------------------------------|-------------------------------|

e|5------ ------- ------- -------|------- ------- ------- -------|
B|5------------------------------|-------------------------------|
G|6------------------------------|-------------------------------|
D|7------------------------------|-------------------------------|
A|7------------------------------|-------------------------------|
E|5------------------------------|-------------------------------|
When was younger, so much
I


Dbm
e|4------ ----4-- ----4-- -------|------- ----4-- ----4-- -------|
B|5-----------5-------5----------|------------5-------5----------|
G|6-----------6-------6----------|------------6-------6----------|
D|6-----------6-------6----------|------------6-------6----------|
A|4-----------4-------4----------|------------4-------4----------|
E|-------------------------------|-------------------------------|

e|4------ ------- ------- -------|------- ------- ------- -------|
B|5------------------------------|-------------------------------|
G|6------------------------------|-------------------------------|
D|6------------------------------|-------------------------------|
A|4------------------------------|-------------------------------|
E|-------------------------------|-------------------------------|
younger than today


F#m
e|2------ ----2-- ----2-- 2---2--|2---2-- 2---2-- ----2-- -------|
B|2-----------2-------2---2---2--|2---2---2---2-------2----------|
G|2-----------2-------2---2---2--|2---2---2---2-------2----------|
D|4-----------4-------4---4---4--|4---4---4---4-------4----------|
A|4-----------4-------4---4---4--|4---4---4---4-------4----------|
E|2-----------2-------2---2---2--|2---2---2---2-------2----------|

e|2------ ------- ------- -------|------- ------- ------- -------|
B|2------------------------------|-------------------------------|
G|2------------------------------|-------------------------------|
D|4------------------------------|-------------------------------|
A|4------------------------------|-------------------------------|
E|2------------------------------|-------------------------------|
I never needed anybody's help



D G A
e|2------ ------- 3------ 0------|----0-- 0------ 0------ 0------|
B|3---------------3-------2------|----2---2-------2-------2------|
G|2---------------0-------2------|----2---2-------2-------2------|
D|0---------------0-------2------|----2---2-------2-------2------|
A|----------------2-------0------|----0---0-------0-------0------|
E|----------------3--------------|-------------------------------|

e|2------ ------- 3------ 5------|------- ------- ------- -------|
B|3---------------3-------5------|-------------------------------|
G|2---------------4-------6------|-------------------------------|
D|5---------------5-------7------|-------------------------------|
A|5---------------5-------7------|-------------------------------|
E|----------------3-------5------|-------------------------------|
in any way


01:41

e|0------ ----0-- ----0-- -------|0------ ----0-- ----0-- -------|
B|2-----------2-------2----------|2-----------2-------2----------|
G|2-----------2-------2----------|2-----------2-------2----------|
D|2-----------2-------2----------|2-----------2-------2----------|
A|0-----------0-------0----------|0-----------0-------0----------|
E|-------------------------------|-------------------------------|

e|5------ ------- ------- -------|------- ------- ------- -------|
B|5------------------------------|-------------------------------|
G|6------------------------------|-------------------------------|
D|7------------------------------|-------------------------------|
A|7------------------------------|-------------------------------|
E|5------------------------------|-------------------------------|
But now these days have I'm
gone
(Now these days have
gone


Dbm
e|4------ ----4-- ----4-- -------|4------ ----4-- ----4-- -------|
B|5-----------5-------5----------|5-----------5-------5----------|
G|6-----------6-------6----------|6-----------6-------6----------|
D|6-----------6-------6----------|6-----------6-------6----------|
A|4-----------4-------4----------|4-----------4-------4----------|
E|-------------------------------|-------------------------------|

e|4------ ------- ------- -------|------- ------- ------- -------|
B|5------------------------------|-------------------------------|
G|6------------------------------|-------------------------------|
D|6------------------------------|-------------------------------|
A|4------------------------------|-------------------------------|
E|-------------------------------|-------------------------------|
not so self assured
And now I


F#m
e|2------ ----2-- ----2-- -------|2------ ----2-- ----2-- -------|
B|2-----------2-------2----------|2-----------2-------2----------|
G|2-----------2-------2----------|2-----------2-------2----------|
D|4-----------4-------4----------|4-----------4-------4----------|
A|4-----------4-------4----------|4-----------4-------4----------|
E|2-----------2-------2----------|2-----------2-------2----------|

e|2------ ------- ------- -------|------- ------- ------- -------|
B|2------------------------------|-------------------------------|
G|2------------------------------|-------------------------------|
D|4------------------------------|-------------------------------|
A|4------------------------------|-------------------------------|
E|2------------------------------|-------------------------------|
Now I find I've changed my mind I've
find I've


D G A
e|2------ ------- 3---3-- -------|0---0-- 0------ 0------ 0------|
B|3---------------3---3----------|2---2---2-------2-------2------|
G|2---------------0---0----------|2---2---2-------2-------2------|
D|0---------------0---0----------|2---2---2-------2-------2------|
A|----------------2---2----------|0---0---0-------0-------0------|
E|----------------3---3----------|-------------------------------|

e|2------ ------- 3------ -------|5------ ------- ------- -------|
B|3---------------3--------------|5------------------------------|
G|2---------------4--------------|6------------------------------|
D|5---------------5--------------|7------------------------------|
A|5---------------5--------------|7------------------------------|
E|----------------3--------------|5------------------------------|
opened up the doors
opened up the doors)


01:51
Bm
e|2------ 2------ 2---2-- 2------|2------ 2------ 2---2-- 2---2--|
B|3-------3-------3---3---3------|3-------3-------3---3---3---3--|
G|4-------4-------4---4---4------|4-------4-------4---4---4---4--|
D|4-------4-------4---4---4------|4-------4-------4---4---4---4--|
A|2-------2-------2---2---2------|2-------2-------2---2---2---2--|
E|-------------------------------|-------------------------------|
Help me If you can, I'm feeling



e|2------ 2------ 2---2-- 2---2--|2------ 2------ 2---2-- 2------|
B|3-------3-------3---3---3---3--|3-------3-------3---3---3------|
G|4-------4-------4---4---4---4--|4-------4-------4---4---4------|
D|4-------4-------4---4---4---4--|4-------4-------4---4---4------|
A|2-------2-------2---2---2---2--|2-------2-------2---2---2------|
E|-------------------------------|-------------------------------|

e|------- ------- ------- -------|------- ------- ------- -------|
B|-------------------------------|-------------------------------|
G|-------------------------------|-------------------------------|
D|-------------------------------|-------------------------------|
A|-------------------------------|2---------------0--------------|
E|-------------------------------|-------------------------------|
down And I do


G
e|3------ 3------ 3---3-- 3------|3------ 3---3-- 3---3-- 3---3--|
B|3-------3-------3---3---3------|3-------3---3---3---3---3---3--|
G|0-------0-------0---0---0------|0-------0---0---0---0---0---0--|
D|0-------0-------0---0---0------|0-------0---0---0---0---0---0--|
A|2-------2-------2---2---2------|2-------2---2---2---2---2---2--|
E|3-------3-------3---3---3------|3-------3---3---3---3---3---3--|

e|------- ------- ------- -------|------- ------- ------- -------|
B|-------------------------------|-------------------------------|
G|-------------------------------|-------------------------------|
D|-------------------------------|-------------------------------|
A|-------------------------------|-------------------------------|
E|3------------------------------|-------------------------------|
appreciate you being



e|3------ 3------ 3---3-- 3---3--|3------ 3------ 3---3-- 3---3--|
B|3-------3-------3---3---3---3--|3-------3-------3---3---3---3--|
G|0-------0-------0---0---0---0--|0-------0-------0---0---0---0--|
D|0-------0-------0---0---0---0--|0-------0-------0---0---0---0--|
A|2-------2-------2---2---2---2--|2-------2-------2---2---2---2--|
E|3-------3-------3---3---3---3--|3-------3-------3---3---3---3--|

e|------- ------- ------- -------|------- ------- ------- -------|
B|-------------------------------|-------------------------------|
G|-------------------------------|-------------------------------|
D|-------------------------------|-------------------------------|
A|-------------------------------|-------------------------------|
E|-------------------------------|3---------------2--------------|
round


02:01
E
e|0------ 0------ 0---0-- 0------|0------ 0------ 0---0-- ----0--|
B|0-------0-------0---0---0------|0-------0-------0---0-------0--|
G|1-------1-------1---1---1------|1-------1-------1---1-------1--|
D|2-------2-------2---2---2------|2-------2-------2---2-------2--|
A|2-------2-------2---2---2------|2-------2-------2---2-------2--|
E|0-------0-------0---0---0------|0-------0-------0---0-------0--|

e|------- ------- ------- -------|------- ------- ------- -------|
B|-------------------------------|-------------------------------|
G|-------------------------------|-------------------------------|
D|-------------------------------|-------------------------------|
A|-------------------------------|-------------------------------|
E|0------------------------------|-------------------------------|
Help me get my feet back on the ground
Help me get my feet back on the ground



e|0------ 0------ 0---0-- 0------|0---0-- ----0-- ----0-- 0------|
B|0-------0-------0---0---0------|0---0-------0-------0---0------|
G|1-------1-------1---1---1------|1---1-------1-------1---1------|
D|2-------2-------2---2---2------|2---2-------2-------2---2------|
A|2-------2-------2---2---2------|2---2-------2-------2---2------|
E|0-------0-------0---0---0------|0---0-------0-------0---0------|
Won't you
Won't you


A
e|0------ ------- ------- -------|------- ------- ------- -------|
B|2------------------------------|-------------------------------|
G|2------------------------------|-------------------------------|
D|2------------------------------|-------------------------------|
A|0------------------------------|-------------------------------|
E|-------------------------------|-------------------------------|

e|------- ------- ------- -------|------- ------- ------- -------|
B|------------0---------------0--|------------0---------------0--|
G|--------0---------------0------|--------0---------------0------|
D|----5---------------4----------|----4---------------2----------|
A|7---------------6--------------|5---------------4--------------|
E|-------------------------------|-------------------------------|
please, please, help
please, please, help



e|2------ 2------ 2---2-- 2------|2------ 2---2-- 2---2-- 2------|
B|2-------2-------2---2---2------|2-------2---2---2---2---2------|
G|2-------2-------2---2---2------|2-------2---2---2---2---2------|
D|4-------4-------4---4---4------|4-------4---4---4---4---4------|
A|4-------4-------4---4---4------|4-------4---4---4---4---4------|
E|2-------2-------2---2---2------|2-------2---2---2---2---2------|
me? me
Help! help!



e|0------ ------- ------- -------|------- ------- ------- -------|
B|2------------------------------|-------------------------------|
G|2------------------------------|-------------------------------|
D|2------------------------------|-------------------------------|
A|0------------------------------|-------------------------------|
E|-------------------------------|-------------------------------|
Me Oooooooooooooooooooommmmmmmmmmmmmmm
Me Oooooooooooooooooooommmmmmmmmmmmmmm)




B Bend
R Release
/ slide up
\ slide down
H hammer-on
P pull-off
~ vibrato
+ harmonic
x Mute note
. - play note like a dot in standard notation
^ - ties two notes together
(. Pause
Song info
Help
The Beatles
2001
  • Non-Music
  • Rock
  • Stage & Screen
  • Beat
  • Rock & Roll
Alternative tracks
Similar songs
Little Sister - Elvis Presley
Start Me Up - The Rolling Stones
Love Me Tender - Elvis Presley
Piggies - The Beatles
Orgasmatron - Motörhead

Hi! Hope you enjoy backing track experience.
If you want to help us in the development of the project, feel free to donate!