Apache - The Shadows
00:00 / 00:00
Tabs and lyrics
Tunning: Standard (E A D G B e)
THE SHADOWS - APACHE - TABBED BY DANNY BLOOMFIELD

e|---------------5-3-0|-------------5-3-0|------------------|---------------------|
B|---1-3b------1------|---1-3b----1------|------------------|---------------------|
G|-2---------2--------|-2-------2--------|---2---2----------|---2---2-------------|
D|--------------------|------------------|-2---2---2-4-2---2|-2---2---2-4-2---2---|
A|--------------------|------------------|---------------5--|---------------5-----|
E|--------------------|------------------|------------------|---------------------|


e|-------------------|------------------|--------------x2--------------------|
B|-------------------|------------------|------------------------------------|
G|---7---7-----------|---2---2----------|------------------------------------|
D|-7---7---7-9-7----7|-2---2---2-4-2---2|---333---3333---333---3333-2--------|
A|---------------10--|---------------5--|-3-----3------3-----3--------00-----|
E|-------------------|------------------|------------------------------------|


e|--------------------------|---------------------3-------6---6v|
B|-----1-0-0h1-3-3/5-5\3-1--|-----1-0-0h1-3---3/5---5-5/8---8-8v|
G|---2---------------------2|---2-----------0-------------------|
D|-3------------------------|-3---------------------------------|
A|--------------------------|-----------------------------------|
E|--------------------------|-----------------------------------|


e|----------------------------|--------------x2------------------|
B|-----1--0-0h1-3-3/5--5\3-1--|----------------------------------|
G|---2-----------------------2|----------------------------------|
D|-3--------------------------|---333---3333---333---3333-2------|
A|----------------------------|-3-----3------3-----3--------0-0--|
E|----------------------------|----------------------------------|


e|------------------------|----------------------|---------------------|
B|------------------------|----------------------|---------------------|
G|----2---2---------------|----2---2-------------|---7---7-------------|
D|--2---2---44444---2----2|--2---2---44444-2---2-|-7---7---99999-7----7|
A|---------------------5--|------------------5---|-----------------10--|
E|------------------------|----------------------|---------------------|


e|--------------------|--------------------------|-------------------------------|
B|--------------------|-----1-0-0h1-3-3/5-5\3-1--|-----1-0-0h1-3-----------------|
G|---2---2------------|---2----------------------|---2-----------00000-3-2-3-2-0-|
D|-2---2---44444-2---2|-3------------------------|-3-----------------------------|
A|-----------------5--|--------------------------|-------------------------------|
E|--------------------|--------------------------|-------------------------------|


e|----------------------|--------------------------------|
B|-----1-0-0h1-3/5-5\3-2|--------------------------------|
G|---2------------------|--------------------------------|
D|-3--------------------|---333---3333---333---3333-2----|
A|----------------------|-3-----3------3-----3--------0-0|
E|----------------------|--------------------------------|


e|-----------------------|--------|-----5-3-0--------------------------------------|
B|-----------------------|---1-3b-|---1--------------------------------------------|
G|-----------------------|-2------|-2----------repeat til fade---------------------|
D|-----------------------|--------|------------------------------------------------|
A|-------------------88-7|--------|------------------------------------------------|
E|-11111-55555-88888-----|--------|------------------------------------------------|


************************************

| x Dead note
| h Hammer-on
| b Bend
| / Slide up
| \ Slide down
| v Vibrato

************************************
Tunning: Standard (E A D G B e)
#----------------------------------PLEASE NOTE---------------------------------#
#This file is the author's own work and represents his interpretation of the #
#song. You may only use this file for private study, scholarship, or research. #
#------------------------------------------------------------------------------##

From : Jean-Pierre Trolet
You will find a MP3 (1,5 Mb) recorded by myself to illustrate the tab and how to contact
me on my webpage here:
http://jptrol.free.fr/mus

APACHE - THE SHADOWS

Played with two electric guitars with reverb. The difficulty is to strumm the strings
rapidly up and down (I did not succeed each time in my own MP3 demo!)

b/\ : bend 1/2
p : pull-off
\_/ : depressing the mechanical vibrato
V^V^V^V : the string must be strummed rapidly up and down.


Am D
repeat once
E+------------------------5p-3---0-----+-------------------------------------+
B+------1---3b/\------3----------------+-------------------------------------+
G+---2-------------2-------------------+-------------------------------------+
D+-------------------------------------+-------------------------------------+
A+-------------------------------------+-------------------------------------+
E+-------------------------------------+-------------------------------------+

Am D Am D Am
E+-------------------------------------+-------------------------------------+
B+-------------------------------------+-------------------------------------+
G+------2---2----2-----------------2---+----2---2----2-----------------------+
D+---2--------2-----2--4--4--2--0----2-+-2--------2----2--4--4--2--0--2------+
A+-------------------------------------+-------------------------------------+
E+-------------------------------------+-------------------------------------+

Dm G Dm Am D Am
E+-------------------------------------+-------------------------------------+
B+-------------------------------------+-------------------------------------+
G+------7--7----7----------------7-----+-----2--2----2-----------------------+
D+--7--------7----7--9--9--7--5-----7--+--2-------2-----2--4--4--2--0--2-----+
A+-------------------------------------+-------------------------------------+
E+-------------------------------------+-------------------------------------+


F V^V^V^V (repeat 4 times) Am F V^V^V^V (repeat 4 times)
E+-------------------------------------+-------------------------------------+
B+-------------------------------------+-------------------------------------+
G+-------------------------------------+-------------------------------------+
D+------3-3-3--3-----------------------+--2---------3-3-3--3-----------------+
A+---3---------------------------------+-----0---3---------------------------+
E+-------------------------------------+-------------------------------------+

Am F G (full barre) C (open) G(open) Am
E+-------------------------------------+-------------------------------------+
B+-------------------------------------+-------------------------------------+
G+-------------------------------------+-7-9-7-------------------------------+
D+--2--------7--10--9--9--10-----------+-------10-----7----------------------+
A+-------8-8---------------------------+-------------------------------------+
E+-------------------------------------+-------------------------------------+


F G(full barre) C (open) C7
E+-------------------------------------+-------------------------------------+
B+-------------------------------------+------------8\_/---------------------+
G+-------------------------------7-----+-0\_/-------9\_/---------------------+
D+----------7--10--9--9--10------------+-------------------------------------+
A+-------8-8---------------------------+-------------------------------------+
E+-------------------------------------+-------------------------------------+

F G(full barre) C (open) G(open) Am
E+-------------------------------------+-------------------------------------+
B+-------------------------------------+-------------------------------------+
G+-------------------------------7-----+-9-9-9-9----7------------------------+
D+----------7--10--9--9--10------------+---------------10-----7--------------+
A+-------8-8---------------------------+-------------------------------------+
E+-------------------------------------+-------------------------------------+


F
V^V^V^V^V V^V^V^V^V V^V^V^V^V V^V^V^V^V Am
E+-------------------------------------+-------------------------------------+
B+-------------------------------------+-------------------------------------+
G+-------------------------------------+-----------10-10-10-10-10----9-------+
D+----------------7--7-7-7-7----10-10--+10-10-10-----------------------------+
A+----8--8-8-8-8-----------------------+-------------------------------------+
E+-------------------------------------+-------------------------------------+
Tunning: Standard (E A D G B e)
#----------------------------------PLEASE NOTE---------------------------------#
#This file is the author's own work and represents their interpretation of the #
#song. You may only use this file for private study, scholarship, or research. #
#------------------------------------------------------------------------------##

submitted, but not written, by:

APACHE (The bit everone remembers)
Chords are something like Am C F G (Can't remember what order so don't
ask! You should be able to work that bit out from the record)

E------------------------------------------------------------------------------|
B------------------------------------------------------------------------------|
G--------2--------2-----------------------------------2--------2---------------|
D----2--------2--------2-(H)-4----2----0-----2----2--------2--------2-(H)-4----|
A------------------------------------------------------------------------------|
E------------------------------------------------------------------------------|

E----------------------------------------------------------------|
B--------------------------3--------3----------------------------|
G--------------------2--------2--------2-(H)-4----2----0----2----|
D---2----0----2--------------------------------------------------|
A----------------------------------------------------------------|
E----------------------------------------------------------------|

E--------------------------------------0-------------|
B--------------1-----0-----1-----3----------1-----2--|
G--------2-------------------------------------------|
D--3-------------------------------------------------|
A----------------------------------------------------|
E----------------------------------------------------|

E----------------------------------------------------------------------------|
B----------------------------------------------------------------------------|
G----------------------------------------------------------------------------|
D-----------3--3--3------------3--3--3-------------3--3--3----3----2---------|
A-----3--------------3--3--3-----------3--3--3-------------------------0-----|
E----------------------------------------------------------------------------|
||||

The last bit of tab with the muting might be a bit dodgy on the rhythm
(Play it as triplets and work it out from there)

Subject: APACHE by the Shadows
Date: Sat, 16 Dec 95 16:06:25 +0000


APACHE by the Shadows

Transcribed by Stephane Lemetayer : slemetay@merlin.enssat.fr
with the help of
Introduction:

E------------------------------------|
B------------------8/10-8-5----------|
G----5-7-7B-7----5------------------o|
D--7-----------7--------------------o|
A------------------------------------|
E------------------------------------|

1st theme: *
E-----------------------------------------------|
B-----------------------------------------(2)---|
G--------2--------2-----------------------------|
D----2--------2--------2-(H)-4----2----0-----2--|
A-----------------------------------------------|
E-----------------------------------------------|

2nd theme: *
E--------------------------------------------------|
B---------3--------3---------------------(3)-------|
G---2--------2--------2-(H)-4----2----0------2-----|
D--------------------------------------------------|
A--------------------------------------------------|
E--------------------------------------------------|

3rd theme:
E----------------------------------------------------------------------------|
B----------------------------------------------------------------------------|
G----------------------------------------------------------------------------|
D-----------3--3--3------------3--3--3-------------3--3--3----3----2---------|
A-----3--------------3--3--3-----------3--3--3-------------------------0-----|
E----------------------------------------------------------------------------|
||||

The last bit of tab with the muting might be a bit dodgy on the rhythm
(Play it as triplets and work it out from there)

4th theme:

|1st |2nd
E----------------------------------|---0-------------|----3-3---6-------|
B--------------1-----0-----1-----3-|------3---1------|-3/5-5-5/8--8-7-8-|
G--------2-------------------------|-------------2---|0----------------o|
D--3-------------------------------|-----------------|-----------------o|
A----------------------------------|-----------------|------------------|
E----------------------------------|-----------------|------------------|

Now the way it is played :

Intro
2*1st theme
2nd theme + 1st theme
2* 3rd theme
4th theme +1st theme
2*3rd theme

variation of the rythm(triplets of notes)
2* 1st theme (with the * note)
2nd theme + 1st theme (with the * note)
2* 3rd theme
4th theme (little variation G|000-01-01-00 instead of the first)
2* 3rd theme
then
D--------------------------33333333-22222222-------------------|
A---------00000000-33333333-----------------000000000-00000000-|
E-11111111-----------------------------------------------------|

fade out with the intro theme.

thanks to the previous version, I hope this one is better.
Enjoy it!
Tunning: Standard (E A D G B e)
APACHE



Intro:

Am D
e |--0---------------2-----4/5-3-0-----|
B |--1-----1-3/4/3---3---1-------------|
G |--2---2-----------2--2--------------| X2
D |------------------------------------|
A |------------------------------------|
E |------------------------------------|


e |------------------------------------|
B |------------------------------------|
G |----2---2-------------2---2---------|
D |--2---2---4-2-0-2---2---2---4-2-0-2-|
A |------------------------------------|
E |------------------------------------|


e |------------------------------------|
B |------------------------------------|
G |----7---7-------------2---2---------|
D |--7---7---9-7-0-7---2---2---4-2-—2--|
A |------------------------------------|
E |------------------------------------|


e |------------------------------------|
B |------------------------------------|
G |------------------------------------| X2
D |---3-3-3---3-3-3---3-3-3---3-3-3-2--|
A |-3-------3-------3-------3--------0-|
E |------------------------------------|


e |------------------------------------|
B |------1-0--1-3-5-3-1----------------|
G |----2----------------2--------------|
D |--3---------------------------------|
A |------------------------------------|
E |------------------------------------|



e |--------------------3-------5-------|
B |-----1-0--1-3—--3/5---5-5/7---7-7/b9|
G |---2----------0---------------------|
D |-3----------------------------------|
A |------------------------------------|
E |------------------------------------|



e |------------------------------------|
B |------1-0--1-3-5-3-1----------------|
G |----2----------------2--------------|
D |--3---------------------------------|
A |------------------------------------|
E |------------------------------------|



e |------------------------------------|
B |------------------------------------|
G |------------------------------------| X2
D |---3-3-3---3-3-3---3-3-3---3-3-3-2--|
A |-3-------3-------3-------3--------0-|
E |------------------------------------|



e |-----------------------------------------------------|
B |-----------------------------------------------------|
G |--2-2-2-2---2-2----------------2---------------------| X2
D |-2-------2-2---4-4-4-4-2-2-0-0—2---------------------|
A |-----------------------------------------------------|
E |-----------------------------------------------------|



e |-----------------------------------------------------|
B |-----------------------------------------------------|
G |--7-7-7-7---7-7----------------7---------------------|
D |-7-------7-7---9-9-9-9-7-7-0-0—7---------------------|
A |-----------------------------------------------------|
E |-----------------------------------------------------|


e |-----------------------------------------------------|
B |-----------------------------------------------------|
G |--2-2-2-2---2-2--------------------------------------|
D |-2-------2-2---4-4-4-4-2-2-0-0-2-2-2-2-2-2-2-2-2-2---|
A |-----------------------------------------------------|
E |-----------------------------------------------------|



e |------------------------------------|
B |------1-0--1-3-5-3-1----------------|
G |----2----------------2--------------|
D |--3---------------------------------|
A |------------------------------------|
E |------------------------------------|



e |----------------------------------------|
B |----1-0--1-3-5--------------------------|
G |---2-----------1-1-1-1-1-1-2-1/3-1------|
D |--3-------------------------------------|
A |----------------------------------------|
E |----------------------------------------|


e |------------------------------------|
B |------1-0--1-3-5-3-1----------------|
G |----2----------------2--------------|
D |--3---------------------------------|
A |------------------------------------|
E |------------------------------------|


e |------------------------------------|
B |------------------------------------|
G |------------------------------------| X2
D |---3-3-3---3-3-3---3-3-3---3-3-3-2--|
A |-3-------3-------3-------3--------0-|
E |------------------------------------|


e |------------------------------------|
B |------------------------------------|
G |------------------------------------|
D |------------------------------------|
A |------------------------------------|
E |-1-1-1-4-4-4-6-6-6-8-8-8-7----------|




Am D
e |--0---------------2-----4/5-3-0-----|
B |--1-----1-3/4/3---3---1-------------|
G |--2---2-----------2--2--------------| X4
D |------------------------------------|
A |------------------------------------|
E |------------------------------------|


Tunning: Standard (E A D G B e)
Am D
e|-0------------2-----5-3-0-|
B|-1---1-3b4b3--3---1-------|
G|-2-2----------2-2---------| (x2)
D|-2------------0-----------|
A|-0------------------------|
E|--------------------------|

e|------------------------------------------------------------------|
B|------------------------------------------------------------------|
G|---2----2--------------2----2--------------7----7--------------2--|
D|-2----2---4-2-0-2----2----2---4-2-0-2----7----7---9-7-5-7----2----|
A|------------------------------------------------------------------|
E|------------------------------------------------------------------|

e|------------|
B|------------|
G|--2---------|
D|2---4-2-0-2-|
A|------------|
E|------------|

e|---------------------------------------------|
B|---------------------------------------------|
G|---------------------------------------------|
D|--333-333-333-333-2--------333-333-333-333-2-|
A|-3---3---3---3--------0---3---3---3---3------|
E|---------------------------------------------|

e|----------------------------------------------3-----5-7~----------|
B|-----1-0-0-1-3/5-3\1----------1-0-0-1-3---3/5---5/7---9~-----1-0-0|
G|---2-----------------2------2-----------0------------------2------|
D|-3------------------------3------------------------------3--------|
A|------------------------------------------------------------------|
E|------------------------------------------------------------------|

e|-------------|
B|-1-3/5-3\1---|
G|-----------2-|
D|-------------|
A|-------------|
E|-------------|

e|---------------------------------------------|
B|---------------------------------------------|
G|---------------------------------------------|
D|--333-333-333-333-2--------333-333-333-333-2-|
A|-3---3---3---3--------0---3---3---3---3------|
E|---------------------------------------------|

e|---------------------------------------|
B|---------------------------------------|
G|--2-2-2-2-----2-2-----------------2----| (x2)
D|-2--------2-2-----4-4-4-4-2-2-0-0----2-|
A|---------------------------------------|
E|---------------------------------------|

e|---------------------------------------|
B|---------------------------------------|
G|---7-7-7-7-----7-7-----------------7---|
D|-7---------7-7-----9-9-9-9-7-7-5-5---7-|
A|---------------------------------------|
E|---------------------------------------|

e|--------------------------------------------0-|
B|-------------------------------------------2--|
G|--2-2-2-2-----2-2-----------------2-------2---|
D|-2--------2-2-----4-4-4-4-2-2-0-0----2---2----|
A|----------------------------------------0-----|
E|----------------------------------------------|

e|------------------------------------------------------------------|
B|-----1-0-0-1-3/5-3\1----------1-0-0-1--------------------1-0-0-3/5|
G|---2-----------------2------2------------0-00001010----2----------|
D|-3------------------------3--------------------------3------------|
A|------------------------------------------------------------------|
E|------------------------------------------------------------------|

e|------|
B|3\1---|
G|----2-|
D|------|
A|------|
E|------|

e|-----------------------------------------------|
B|-----------------------------------------------|
G|-----------------------------------------------|
D|--333-333-333-333-2----------------------------|
A|-3---3---3---3------0------------------88888-7-|
E|----------------------11111/55555/88888--------|

Am D
e|-0------------2-----5-3-0-|
B|-1---1-3b4b3--3---1-------|
G|-2-2----------2-2---------|
D|-2------------0-----------|
A|-0------------------------|
E|--------------------------|


************************************

| b Bend
| ~ Vibrato
| / Slide up
| \ Slide down

************************************
Tunning: Standard (E A D G B e)
this is an easier and much more fun way this awesome song... its maby not 100%
correct, but i hope you enjoy it:D




|----------------5--------|
|------------------8--5~~-|
|----5-7~~-----5----------|
|--7---------7------------|X2
|-------------------------|
|-------------------------|

|--------------------|
|--------------------|
|--------------------|
|--7-7-7-4-----------|X2
|-7---7---7-5-7~~----|
|--------------------|

|--------------------|
|--------------------|
|---7-7-7-4----------|
|--7---7---7-5-7~~---|
|--------------------|
|--------------------|

|--------------------|
|--------------------|
|--------------------|
|--7-7-7-4-----------|
|-7---7---7-7~~------|
|--------------------|

|--------------------------------|
|--------------------------------|
|--------------------------------|
|---333---3333---333---3333-2----|X2 exept not the 0-0 in the end...
|-3-----3------3-----3--------0-0|
|--------------------------------|

|-------------------------------|
|-------------7-----------------|
|---------7-9---9-7-------------|
|---7-9-7-----------9~~---------|
|-9-----------------------------|
|-------------------------------|

|-------------------------------|
|-------------------------------|
|---------7-9-------------------|
|---7-9-7-----7-----------------|
|-9-----------------------------|
|-------------------------------|

|-------------------------------|
|-------------7-----------------|
|---------7-9---9-7-------------|
|---7-9-7-----------9~~---------|
|-9-----------------------------|
|-------------------------------|

|--------------------------------|
|--------------------------------|
|--------------------------------|
|---333---3333---333---3333-2----|
|-3-----3------3-----3--------0-0|
|--------------------------------|


|--------------------------------|
|--------------------------------|
|--------------------------------|
|---333---3333---333---3333-2----|
|-3-----3------3-----3-----------|
|--------------------------------|

|--------------------------------------------------|
|--------------------------------------------------|
|--------------------------------------------------|
|-----7-7-7-7-----7-7--4-4-4-4--------7-7-7-7------|X2
|-7-7---------7-7-------------7-7--5-5--------7-7--|
|--------------------------------------------------|

|--------------------------------------------------|
|--------------------------------------------------|
|-----7-7-7-7-----7-7--4-4-4-4---------7-7-7-7-----|
|-7-7---------7-7-------------7-7--5-5--------7-7--|
|--------------------------------------------------|
|--------------------------------------------------|

|--------------------------------------------------|
|--------------------------------------------------|
|--------------------------------------------------|
|-----7-7-7-7-----7-7--4-4-4-4--------7-7-7-7------|
|-7-7---------7-7-------------7-7--5-5--------7-7--|
|--------------------------------------------------|

|--------------------|
|--------------------|
|--------------------|
|--7-7-7-4-----------|
|-7---7---7-5-7~~----|
|--------------------|

|--------------------|
|--------------------|
|---7-7-7-4----------|
|--7---7---7-7~~-----|
|--------------------|
|--------------------|

|------------------------------------|
|------------------------------------|
|------------------------------------|
|------------------------------------|
|-----------------------------8-8-7--|
|-1-1-1-1--5-5-5-5--8-8-8-8-8--------|

|----------------5--------|
|------------------8--5~~-|
|----5-7~~-----5----------|
|--7---------7------------|X2 fading out...
|-------------------------|
|-------------------------|




Song info
Apache
The Shadows
2001
  • Pop
  • Rock
  • Rock & Roll
Similar songs
Lady Madonna - The Beatles
Mountain of love - Johnny Rivers
Hound Dog - Elvis Presley
Toys And Flavors - The Hellacopters

Hi! Hope you enjoy backing track experience.
If you want to help us in the development of the project, feel free to donate!