Tush - ZZ Top
00:00 / 00:00
Tabs and lyrics
Tunning: Standard (E A D G B e)
TUSH (with solo)
by ZZ TOP

here is up to the second verse of "Tush" plus
this time I have included the first solo of the song.
e|---------------|------------|----------------|---------------|
B|---------------|-----5------|----------------|---------------|
G|----5---5-3----|-5---5-3----|----5---5-3-----|-5---5-3-------|
D|----5---5-3----|-5---5-3----|----5---5-3-----|-5---5-3-------|
A|---------------|------------|----------------|---------------|
E|3-3---3------3-|---3------1/|3-3---3-----3-3-|---3-------3-1/|

Ive been up Ive been down take my word
e|---------------|-------------|----------------|--------------|
B|---------------|-----5-------|----------------|--------------|
G|----5---5-3----|-5---5-3-----|----5---5-3-----|---5---5-3----|
D|----5---5-3----|-5---5-3-----|----5---5-3-----|---5---5-3----|
A|---------------|-------------|----------------|--------------|
E|3-3---3------3-|---3-----3-1/|3-3---3-----3-1/|3-3--3-----3--|

my way round I aint askin for much
e|--------------|--------------|------------------------|-------------------|
B|---5----------|--------------|------------------------|-------------------|
G|---5---5-3----|---5---5-3----|------------------------|-------------------|
D|---5---5-3----|---5---5-3----|-------10----10---10----|-10----------------|
A|--------------|--------------|-10-10-12-12-13---12-12-|-10-10-------------|
E|-3---3------3-|-3---3------6-|-8--8-----------8-------|-8--8--0-0-1-1-2-2-|

I said Lord take me downtown Im just lookin for some
e|----------------|---------------|-----------------|-----------------| tush.
B|----------------|---------------|-----------------|-----------------|
G|----5---5-3-----|-5---5-3---5---|-2-2-4-4-5-5-4---|-----------------|
D|----5---5-3-----|-5---5-3---5-0-|-0-0-0-0-0-0-0---|-5-5-7-7-5-5-7-0-|
A|----------------|---------------|-----------------|-3-3-3-3-3-3-3---|
E|3-3---3-----3-3-|---3-----------|-----------------|-----------------|

Ive been bad...(into the second verse)
e|------------------|----------------|
B|------------------|----------------|
G|------------------|--------------0-|
D|------------------|---5-6-7------0-|
A|------7---8-8-7-7-|-5-3-4-5--------|
E|-/3-3---3-3-3-3-3-|-3--------------|

[First solo]
e|----|------------------|-------------------|------------------------|
B|----|------------------|-------------------|-----------11/12--------|
G|----|-----12-12----12--|-12--12--12--12\10-|/12--12-----------------|
D|-12p|0/12--------------|-----12------------|--------12--------12----|
A|----|------------------|-------------------|---------------------12-|
E|----|------------------|-------------------|------------------------|

e|---------------------------|---------------3-|-----------------|
B|-11/12---------------------|----5\--/5---5---|-----------------|
G|----------12----------12\3-|-5------/5-------|-5---3---5--/3/3-|
D|-------12----12\10/12------|--X--------5-----|---5---5---5-----|
A|---------------------------|-----------------|-----------------|
E|---------------------------|-----------------|-----------------|

e|--------------------|---------------------|-------------------|
B|----/12-------------|---/12---------------|/7---6/7---------0-|
G|-0--/12------3P0--3P|0--/12---------------|/7\5-----7---7\5---|
D|----/12-------------|---/12---------12\7--|/7-------7---7\5---|
A|--------------------|---------------------|-------------------|
E|--------------------|---------------------|-------------------|

e|------------------|----------------------|------------------|
B|/5----------------|----------/11---------|------------------|
G|/5---3---5--/3-/3p|0--/12--------12\10---|/10---------------|
D|/5-5---0----------|--0----12----------12-|------------------|
A|-----------5------|----------------------|------------------|
E|------------------|----------------------|------------------|

e|--------------------------------|-------------------------------|
B|-------12----12----12----12-12\-|-------12-12-12\10-------12----|
G|--------------------------------|-------------------------------|
D|-10/12----12----12----12--------|-10/12-------------10/12----12-|
A|--------------------------------|-------------------------------|
E|--------------------------------|-------------------------------|

e|-------------------------------------|--------------------------|
B|-------12----12----12\10-------12----|-12\10---------10----12\--|
G|-------------------------------------|---------12-10-10-12-12\--|
D|-10/12----12----12-------10/12----12-|------10------------------|
A|-------------------------------------|--------------------------|
E|-------------------------------------|--------------------------|

e|--------------------|----------------|-------------------------------|
B|-/5---5----5----6---|----5--5--------|---------------/11-/11---------|
G|-/5---------------6\|5----------5\3--|-12-12-12\10----------12\10----|
D|--------------------|--5-------------|------------12--------12\10-12-|
A|--------------------|----------------|-------------------------------|
E|--------------------|----------------|-------------------------------|

e|---------------------------|----------------19-------------|
B|-------11-12------------20-|-20-20-20\18-------18\17-------|
G|-12-----------12--17/19----|-------------19----------17/19-|
D|----12--------12-----------|-------------19----------------|
A|---------------------------|-------------------------------|
E|---------------------------|-------------------------------|

e|-15-----------------------------|--------------------------|
B|---14\13-11/12-11/12---12\10----|-12-12-12\10--------------|
G|-----------------------12\10----|-12-12-12\10----12--12\10-|
D|-----------------------------12-|-------------12-----12\10-|
A|--------------------------------|--------------------------|
E|--------------------------------|--------------------------|

Take me back...
e|------------------------|
B|------------------------|
G|---/12-----14------14/--|
D|-9----------------------|
A|------------------------|
E|------------------------|

************************************

| p Pull-off
| / Slide up
| \ Slide down
| P Pop

************************************
Tunning: Standard (E A D G B e)
Q=140
4/4
Gtr I
E E E E E Q E E E E E +Q. E E E E E E Q E E E E E +Q E E
e|---------------|-----------------||-----------------|-------------------||
B|---------------|-----------------||o----------------|------------------o||
G|-----5---5-3---|-5---5-3-(3)-----||------5---5-3----|-5---5-3-(3)-------||
D|-----5---5-3---|-5---5-3-(3)-----||------5---5-3----|-5---5-3-(3)-------||
A|---------------|-----------------||o----------------|------------------o||
E|-3-3---3-----3-|---3-----------1S||==3-3---3------3-|---3----------3-1--||


~ ~ ~ ~~
E E E E E Q E E E E E E Q E +E E E E E Q E +E E E E E Q.
e||-----------------|----------------|------------------|-----------------|
B||o----------------|----------------|------------------|-----------------|
G||------5---5-3----|-----5---5-3----|-------5---5-3----|-------5---5-3---|
D||------5---5-3----|-----5---5-3----|-------5---5-3----|-------5---5-3---|
A||o----------------|----------------|------------------|-----------------|
E||--3-3---3------1S|=3-3---3------3-|-(3)-3---3------3-|-(3)-3---3-------|


PM------------------| ~ ~~~
E E E E E E E E E E E E E E E E E E E E E Q E E E E E +Q Q
e|-----------------|-----------------|----------------|-----------------|
B|-----------------|-----------------|----------------|-----------------|
G|-5-5-5-5-5-5-5-5-|-5-5-------------|-----5---5-3----|-5---5-3-(3)--5--|
D|-5-5-7-5-8-8-7-7-|-5-5-------------|-----5---5-3----|-5---5-3-(3)--5--|
A|-----------------|-----------------|----------------|-----------------|
E|-----------------|-----0-0-1-1-2-2-|-3-3---3------3-|---3-------------|


PM--------------------------------------------------| ~~~
E E E E E E E E E E E E E E E E E E E E E E E E E E E E +H
e|-------------------|-----------------|-----------------|-----------------||
B|-------------------|-----------------|-----------------|----------------o||
G|-7-7-7-7--7--7-7---|-5-5-5-5-5-5-5---|-----------------|-----------------||
D|-7-7-9-7-10-10-9-5-|-5-5-7-5-5-5-7-5-|-----------------|-----------------||
A|-----------------5-|---------------5-|-5-5-7-5-8-8-7-7-|-5-3-4-5-(5)----o||
E|-------------------|-----------------|-3-3-5-3-3-3-3-3-|-3---------------||


~~~~~~~~~~~~~~~~~~~~~~~~~~~~~~
Q E E +Q Q Q Q Q Q
e|----------------------|------------------|
B|----------------------|------------------|
G|-x----12-12-(12)--12--|-12--12--12--12\--|
D|----------------------|------------------|
A|----------------------|------------------|
E|----------------------|------------------|


~~ ~~ ~~~
Q E E E E E E E E E E E E Q
e|------------------------|-------------------------|
B|------------12----------|--12---------------------|
G|-12--12-----------12----|--------12----------12\--|
D|--------12-----12----12-|-----12----12S11-12------|
A|------------------------|-------------------------|
E|------------------------|-------------------------|


~ PM~ PM~ PM~ PM
E E E E E E E E E E E E E E E E
e|-----------------|--------------------|
B|-----5-------5---|--------------------|
G|-5-------5-------|-5----3---5----3--3-|
D|---5---5---5---5-|---5----5---5-------|
A|-----------------|--------------------|
E|-----------------|--------------------|


~~~~~~~~
|-3-|
Q Q +E E S S S S +Q Q +Q E E E
e|------------------------|------------------------|
B|------------------------|------------------------|
G|-0--/12--(12)S0-3-0-3-0-|-(0)--/12--(12)--12S7-0-|
D|----/12--(12)S0---------|------/12--(12)---------|
A|------------------------|------------------------|
E|------------------------|------------------------|


Q E E Q +E S S E E E E E E E E
e|--------------------|------------------|
B|-----7-7------------|------------------|
G|-/7------7--(7)S3-0-|-/5---3---5---3-0-|
D|-/7------7--(7)S3-0-|-/5-5---5---5-----|
A|--------------------|------------------|
E|--------------------|------------------|


+Q E E E E E E H H
e|------------------------|-----------------||
B|------------12----------|-----------------||
G|-(0)--12----------10----|-10b10.5---------||
D|---------12----12----12-|-----------------||
A|------------------------|-----------------||
E|------------------------|-----------------||


|--3--| |--3--| |--3--| |--3--| |--3--| |--3--| |3-|
E E E E E E E E E E E E E E E E E E E E E Q
e|-------------------------------------|-------------------------------|
B|-------12----12----12----12----12----|-------12----12----12-------12-|
G|-------------------------------------|-------------------------------|
D|-11-12----12----12----12----12----12-|-11S12----12----12----11S12----|
A|-------------------------------------|-------------------------------|
E|-------------------------------------|-------------------------------|


|--3--| |--3--| |3-| |--3--|
E E E E E E E E E Q E E E E E E E Q
e|-------------------------------|---------------------------|
B|-------12----12----12-------12-|-12S11----------10----12\--|
G|-------------------------------|----------12----10----12\--|
D|-11S12----12----12----11S12----|-------12----12----12------|
A|-------------------------------|---------------------------|
E|-------------------------------|---------------------------|


|-3-|
Q Q Q E E Q Q Q E E E
e|---------------|----------------|
B|-/5--5--5--6---|----5--5--------|
G|-------------6S|=5--------5S3-0-|
D|---------------|----------------|
A|---------------|----------------|
E|---------------|----------------|


~~
|--3--| |--3--|
E E E E E E E E E E E E E E Q E E
e|-------------------------------|--------------------15--|
B|----------------11-11----------|-------11S12-----15-----|
G|-12-12-12S10----------12-10----|-12----------12---------|
D|-------------12-------------12-|----12------------------|
A|-------------------------------|------------------------|
E|-------------------------------|------------------------|


|--3--| |--3--| |---3---| |--3--|
E E E E E Q Q Q Q Q Q Q E E E
e|-15-15-15S13----18-12----|-15----------------------|
B|-------------15-------15-|-----13--12-12-----------|
G|-------------------------|----------------12-10----|
D|-------------------------|----------------------12-|
A|-------------------------|-------------------------|
E|-------------------------|-------------------------|


~~~~~~~~~~
|--3--| |---3---|
E E E E E Q Q Q E Q. +H
e|----------------------------|----------------|
B|----------------------------|----------------|
G|-12-12-12S10----12----------|---12----(12)---|
D|-------------12-----12--10--|-9--------------|
A|----------------------------|----------------|
E|----------------------------|----------------|


Q Q H Q E E Q E E
e|-----------------||--------------------|
B|-/16-------7/----||--------------13S17-|
G|------12\--7/----||----12-12-12--------|
D|-----------------||--------------------|
A|-----------------||--------------------|
E|-----------------||--------------------|


~~ ~~
q E E Q E E q E E Q E E
e|----------------------|----------------------|
B|----------------11S12-|----------------11S12-|
G|-12\--12-12-12--------|-12\--12-12-12--------|
D|----------------------|----------------------|
A|----------------------|----------------------|
E|----------------------|----------------------|


E E E E E E E E E E E E E E E E E E E E E E E E
e|-------------------------|-----------------|-----------------|
B|-------12----------------|---------5-------|-----5-----------|
G|-12----------12----12----|-5---5-------5---|-5-------5---3---|
D|----12----12----12----12-|---5---5---5---5-|---5---5---5---5-|
A|-------------------------|-----------------|-----------------|
E|-------------------------|-----------------|-----------------|


|--3--|
E E E E E E E E E E E E E Q Q E E E E E E E E
e|----------------------------|---------------------|------------------|
B|-------------------12-11----|-------12------------|------------------|
G|-12----12----12-------------|-12----------12--12--|-7---7---7-7S5----|
D|----12----12----12-------12-|----12----12---------|---7---7-------7--|
A|----------------------------|---------------------|------------------|
E|----------------------------|---------------------|------------------|


~~~~~~~
E E E E Q Q E E E E E E E E Q E E +H
e|---------------|------20-16-------------|--------------------*|
B|---------------|---20-------15-13-11----|--------------------*|
G|-5---5---3--0--|---------------------12-|------/11--10-(10)--*|
D|---5---5-------|------------------------|-12\----------------*|
A|---------------|------------------------|--------------------*|
E|---------------|------------------------|--------------------*|






--------------------------------------------------------------------------------


Duration Legend
---------------
W - whole; H - half; Q - quarter; E - 8th; S - 16th; T - 32nd; X - 64th; a - acciaccatura
+ - note tied to previous; . - note dotted; .. - note double dotted
Uncapitalized letters represent notes that are staccato (1/2 duration)
Irregular groupings are notated above the duration line
Duration letters will always appear directly above the note/fret number it represents the
duration for. Duration letters with no fret number below them represent rests. Multi-
bar rests are notated in the form Wxn, where n is the number of bars to rest for. Low
melody durations appear below the staff

Tablature Legend
----------------
h - hammer-on
p - pull-off
b - bend
pb - pre-bend
r - bend release (if no number after the r, then release immediately)
/\ - slide into or out of (from/to "nowhere")
s - legato slide
S - shift slide
- natural harmonic
[n] - artificial harmonic
n(n) - tapped harmonic
~ - vibrato
tr - trill
T - tap
TP - trem. picking
PM - palm muting
\n/ - tremolo bar dip; n = amount to dip
\n - tremolo bar down
n/ - tremolo bar up
/n\ - tremolo bar inverted dip
= - hold bend; also acts as connecting device for hammers/pulls
<> - volume swell (louder/softer)
x - on rhythm slash represents muted slash
o - on rhythm slash represents single note slash

Misc Legend
-----------
| - bar
|| - double bar
||o - repeat start
o|| - repeat end
*| - double bar (ending)
: - bar (freetime)
$ - Segno
& - Coda
Tempo markers - = BPM(8/16=s8/s16), where s8 = swing 8ths, s16 = swing 16ths
Tunning: Standard (E A D G B e)
-----------------------------------
zz top's tush
-----------------------------------
(I admit it. It's a good
tab, but not the best. It's
still usable though.)

e|-------------------------------------|
B|-------------------------------------|
G|----------5---5-3------5---5-3-------|
D|----------5---5-3------5---5-3-------| play twice
A|-------------------------------------|
E|---1/3-3-----3------3----3-----------|


e|-------------------------------------|
B|-------------------------------------|
G|----------5---5-3-------5--5-3-------|
D|----------5---5-3-------5--5-3-------| play twice
A|-------------------------------------|
E|---1/3-3----------1/3-3--------------|


e|--------------------------------------------------|
B|--------------------------------------------------|
G|--------------------------------------------------|
D|--------------------------------------------------|
A|--10-10-12-12-13-13-12-12-10-10-12-12-13-13-13-13-|
E|--8--8--8--8--8--8--8--8--8--8--8--8--8--8--8--8--|


e|-------------------------------------|
B|-------------------------------------|
G|-------5------5-3------5-----5-3-----|
D|-------5------5-3------5-----5-3-----|
A|-------------------------------------|
E|--3-3-----3--------3------3----------|


e|-------------------------------------|
B|-------------------------------------|
G|--2-2-4-4-5-5-4-4--------------------|
D|--0-0-0-0-0-0-0-0--------------------|
A|-------------------------------------|
E|-------------------------------------|


e|-------------------------------------|
B|-------------------------------------|
G|-------------------------------------|
D|--5-5-7-7-8-8-7-7-5-5-7-7-8-8-8-8----| This is for long fingers.
A|--3-3-3-3-3-3-3-3-3-3-3-3-3-3-3-3----| This is easier to reach to.
E|-------------------------------------| You will no what I mean.
or

e|-------------------------------------|
B|-------------------------------------|
G|-------------------------------------|
D|-------------------------------------| This is for shorter fingers.
A|--10-10-12-12-13-13-12-12------------| (Cuation)THis is harder to get to.
E|--8--8--8--8--8--8--8--8-------------|


e|-------------------------------------|
B|-------------------------------------|
G|-------5-----5-3-----5-----5-3-------|
D|-------5-----5-3-----5-----5-3-------|
A|-------------------------------------|
E|--3-3-----3-------3-----3------------|


Then it gets into the solo or something.

I'm sorry. This is all I know. Please enjoy all that I have given to you.

(Hint) Tabs are easier to make than you think. It just takes a while to make one.
Tunning: Standard (E A D G B e)
#----------------------------------PLEASE NOTE---------------------------------#
#This file is the author's own work and represents their interpretation of the #
#song. You may only use this file for private study, scholarship, or research. #
#------------------------------------------------------------------------------#

TUSH
As recorded by ZZ Top
(From the 2006 Album GREATEST HITS)

Transcribed by unregistered


Words and Music by Bill F Gibbons, Frank Beard, Dusty Hill.
Arranged by Bill F Gibbons, Frank Beard, Dusty Hill.

Gtr I (E A D G B E) - 'BFG Lead'
Gtr II (E A D G B E) - 'BFG Rhythm'

Moderately Fast Rock Q=146(8=s8)
4/4
Gtr I
PM| PM ~ PM PM ~~~ PM PM ~ PM PM ~~~~~~
E E E E E Q E E E E E +Q. E E E E E E Q E E E E E +Q E E
|----------------|-----------------|----------------|------------------|
|----------------|-----------------|----------------|------------------|
|-----5---5-3----|-5---5-3-(3)-----|-----5---5-3----|-5---5-3-(3)------|
|-----5---5-3----|-5---5-3-(3)-----|-----5---5-3----|-5---5-3-(3)------|
|----------------|-----------------|----------------|------------------|
|-3-3---3------3-|---3-----------1s|=3-3---3------3-|---3---------3-1s=|


$
PM PM PM PM ~~~~~~ PM PM ~ PM PM ~
E E E E E Q E E E E E +Q E E E E E E E Q E E E E E E Q E
|----------------|------------------||-----------------|----------------|
|----------------|------------------||o----------------|----------------|
|-----5---5-3----|-5---5-3-(3)------||------5---5-3----|-----5---5-3----|
|-----5---5-3----|-5---5-3-(3)------||------5---5-3----|-----5---5-3----|
|----------------|------------------||o----------------|----------------|
|-3-3---3------3-|---3----------3-1s||==3-3---3------1s|=3-3---3------3-|


PM ~ PM PM ~~ PM------------|
+Q E E E Q E E E E E E Q. E E E E E E E E E E E E E E E E
|-----------------|----------------|-----------------|-----------------|
|-----------------|----------------|-----------------|-----------------|
|------5---5-3----|-----5---5-3----|-----------------|-----------------|
|------5---5-3----|-----5---5-3----|-5-5-7-7-8-8-7-7-|-5-5-------------|
|-----------------|----------------|-3-3-3-3-3-3-3-3-|-3-3-------------|
|-(3)----3------3-|-3-3---3--------|-----------------|-----0-0-1-1-2-2-|


~ ~~~~~~ PM------------------------------|
E E E E E Q E E E E E +H E E E E E E E E E E E E E E E E
|----------------|----------------|-------------------|------------------|
|----------------|----------------|-------------------|------------------|
|-----5---5-3----|-5---5-3-(3)----|-------------------|------------------|
|-----5---5-3----|-5---5-3-(3)----|-7-7-9-9-10-10-9-9-|-5-5-7-7-5-5-7----|
|----------------|----------------|-5-5-5-5--5--5-5-5-|-3-3-3-3-3-3-3----|
|-3-3---3------3-|---3------------|-------------------|---------------2s=|


1. 2.
To Coda
PM--------------| PM----------------| ~~~~~~
E E E E E E E E E E E E +Q. E E E E E E E E E E E E E +Q. E
|-----------------|------------------||-----------------|------------------|
|-----------------|-----------------o||-----------------|------------------|
|-----------------|------------------||-----------------|------------------|
|-----------------|---5-6-7-(7)------||-----------------|---5-6-7-(7)---12-|
|---5-7-7-8-8-7-7-|-5-3-4-5-(5)-----o||-5-5-7-7-8-8-7-7-|-5-3-4-5-(5)------|
|-3-3-3-3-3-3-3-3-|-3-------------1--||-3-3-3-3-3-3-3-3-|-3----------------|


Gtr II
~~~~~~~~~~~~~~~~~~~~~~~~~~~~~~~~~~~
E E E E +Q Q Q Q Q Q
|-------------------------|----------------------|
|-------------------------|----------------------|
|-------12-12-(12)---12---|-12---12---12---12\---|
|-0-/12-------------------|------12--------12\---|
|-------------------------|----------------------|
|-------------------------|----------------------|
|
| Gtr I
| PM----------------------------------------------
| E E E E E E E E E E E E E E E E
|-------------------------|----------------------|
|-------------------------|----------------------|
|-------------------------|----------------------|
|-------------------------|----------------------|
|-5---5--7--7---5--5--7-7-|--5-5--7-7--5-5--7--7-|
|-3---3--3--3---3--3--3-3-|--3-3--3-3--3-3--3--3-|


Q E E Q E E E E E E E E E E
|-------------------------|-------------------------|
|-------------/12---------|-12----12----------------|
|-/12---12----------12----|-------------------12S4s=|
|----------12----------12-|----12----12s10-10-------|
|-------------------------|-------------------------|
|-------------------------|-------------------------|
|
|------------------------------------------------|
| E E E E E E E E E E E E E E E E
|-------------------------|-------------------------|
|-------------------------|-------------------------|
|-------------------------|-------------------------|
|-------------------------|-------------------------|
|---5-5--7--7---5-5--7--7-|--5--5--6--6--7--7--8-8--|
|---3-3--3--3---3-3--3--3-|--3--3--4--4--5--5--6-6--|


Q Q Q Q Q a Q Q E E
|-------------------------|-------------------------|
|--------5-----------5----|-------------------------|
|--5----------/5-----5----|--5--5s=3-----5----/4-/4p|
|-------------/5----------|--5----------------------|
|-------------------------|-------------------------|
|-------------------------|-------------------------|
|
| PM------------------------------------------------
| E E E E E E E E E E E E E E E E
|-------------------------|-------------------------|
|-------------------------|-------------------------|
|-------------------------|-------------------------|
|-------------------------|-------------------------|
|-10-10-12-12-10-10-12-12-|-10-10-12-12-10-10-12-12-|
|--8--8--8--8--8--8--8--8-|--8--8--8--8--8--8--8--8-|


~~~ ~~~
Q H S S S S +Q H Q
|---------------------|------------------------|
|---------------------|------------------------|
|-0---12\-----3p0-3p0-|-(0)---/12-------12\----|
|-----12\-------------|-------/12--------------|
|---------------------|------------------------|
|---------------------|------------------------|
|
|-------------------------------------------|
| E E E E E E E E E E E E E E E E
|---------------------|------------------------|
|---------------------|------------------------|
|---------------------|------------------------|
|---------------------|------------------------|
|-5-5--7--7-5-5-7-7---|--5--5---7-7-5-5--7--7--|
|-3-3--3--3-3-3-3-3---|--3--3---3-3-3-3--3--3--|


~
|-3--|
E E Q Q +E E E Q a E E Q E E
|-----------------------|--------------------|
|-----/6-/7-----------0-|--------------------|
|-7---------7---(7)s5---|-/5-5s3---/5-/3-3p==|
|-7---------7---(7)s5---|-/5-----0-/5--------|
|-----------------------|--------------------|
|-----------------------|--------------------|
|
| PM------------------------------------------
| E E E E E E E E E E E E E E E E
|-----------------------|--------------------|
|-----------------------|--------------------|
|-----------------------|--------------------|
|-7-7--9--9-7-7--9--9---|--5-5-7-7--5--5-7-7-|
|-5-5--5--5-5-5--5--5---|--3-3-3-3--3--3-3-3-|
|-----------------------|--------------------|


Q E E E E E E H +E +E Q
|--------------------------|-----------------------|
|----------/12-------------|-----------------------|
|-0-/12--------12-\10------|-\10-----(10)-(10)/----|
|-------12------------12---|-----------------------|
|--------------------------|-----------------------|
|--------------------------|-----------------------|
|
|-----------------------------------------|
| E E E E E E E E E E E E +H
|--------------------------|-----------------------|
|--------------------------|-----------------------|
|--------------------------|-----------------------|
|--------------------------|-----5-6---7---(7)-----|
|-5---5--7---7--5---5--7-7-|---5-3-4---5---(5)-----|
|-3---3--3---3--3---3--3-3-|---3-------------------|


|----3----| |----3----| |--3--| |---3---|
Q Q Q Q Q Q Q Q Q Q Q Q
|--------------------------------|--------------------------|
|-------12---12---12---12---12---|-----12-12-12\-----12-----|
|--------------------------------|--------------------------|
|-/12----------------------------|-/12-----------/12--------|
|--------------------------------|--------------------------|
|--------------------------------|--------------------------|
|
| PM----------------------------------------------------|
| E E E E E E E E E E E E E E E E
|--------------------------------|--------------------------|
|--------------------------------|--------------------------|
|--------------------------------|--------------------------|
|--------------------------------|--------------------------|
|---5-5----7----7--5-5--7-7------|---5--5--7--7----5--5-7-7-|
|---3-3----3----3--3-3--3-3------|---3--3--3--3----3--3-3-3-|


|----3----| |-----3-----| |---3---|
Q Q Q Q Q Q E E E Q Q Q
|----------------------------------|--------------------------|
|-------12---12---12\---------12---|-12s10-----------10---12--|
|----------------------------------|---------12-12---10---12--|
|-/12-------------------/12--------|--------------------------|
|----------------------------------|--------------------------|
|----------------------------------|--------------------------|
|
| PM--------------------------------------------------|
| E E E E E E E E E E E E E E E E
|----------------------------------|--------------------------|
|----------------------------------|--------------------------|
|----------------------------------|--------------------------|
|----------------------------------|--------------------------|
|---5-5----7----7--5--5-----7----7-|--5--5-6--6--7-7--8-8-----|
|---3-3----3----3--3--3-----3----3-|--3--3-4--4--5-5--6-6-----|


~ ~~~~~~
Q Q Q E E Q Q Q E E
|------------------|-----------------|
|-/5---5---5---6---|-----5---5-------|
|----------------7s|=5-----------5s3S|
|------------------|-----------------|
|------------------|-----------------|
|------------------|-----------------|
|
| PM---------------------------------
| E E E E E E E E E E E E E E E E
|------------------|-----------------|
|------------------|-----------------|
|------------------|-----------------|
|--5-5-7-7-5-5-7-7-|-5-5-------------|
|--3-3-3-3-3-3-3-3-|-3-3-------------|
|------------------|-----0-0-1-1-2-2-|


~~
|3-|
E E E Q E E E E E E E E Q E E
|--------------------------|-----------------------15-|
|-------------/11-11-------|-------/11-12------/15----|
|-12-12-12s10--------10----|-12-----------12----------|
|-----------------------12-|----12--------------------|
|--------------------------|--------------------------|
|--------------------------|--------------------------|
|
|--------------------------------------------------|
| E E E E E E E E E E E E E E E E
|--------------------------|--------------------------|
|--------------------------|--------------------------|
|--------------------------|--------------------------|
|--------------------------|--------------------------|
|--5--5--7--7---5--5--7--7-|--5--5---7--7--5-5---7--7-|
|--3--3--3--3---3--3--3--3-|--3--3---3--3--3-3---3--3-|


|--3--| |--3--| |---3---| |--3--|
E E E E E Q Q Q Q Q Q Q E E E
|-15-15-15s13----/18S13----|-15\-----------------------|
|-------------15--------15-|-----13-/12-/12---12s10----|
|--------------------------|------------------12s10----|
|--------------------------|------------------------12-|
|--------------------------|---------------------------|
|--------------------------|---------------------------|
|
| PM---------------------------------------------------
| E E E E E E E E E E E E E E E E
|--------------------------|---------------------------|
|--------------------------|---------------------------|
|--------------------------|---------------------------|
|--7--7--9--9--7---7--9--9-|--5---5---7---7-5--5--7--7-|
|--5--5--5--5--5---5--5--5-|--3---3---3---3-3--3--3--3-|
|--------------------------|---------------------------|


D.S. al Coda
~~~~~
|--3--| |--3---|
E E E E E Q Q Q E Q E +H
|--------------------------|---------------------|
|-12-12-12s10--------------|---------------------|
|-12-12-12s10----12--------|---/12---14-(14)/----|
|-------------12----12\-10-|-9-------------------|
|--------------------------|---------------------|
|--------------------------|---------------------|
|
|----------------------------|
| E E E E E E E E E E E E +H
|--------------------------|---------------------|
|--------------------------|---------------------|
|--------------------------|---------------------|
|--------------------------|-----5-6--7--(7)-----|
|--5--5--7--7--5--5--7---7-|-5---3-4--5--(5)-----|
|--3--3--3--3--3--3--3---3-|-3-------------------|


&
PM ~~
E E E E E Q. e Q. Q E +E
|----------------|-12--------------------|
|----------------|------------7s==8-(8)/-|
|-----5---5-3----|----12\-----7s==8-(8)/-|
|-----5---5-3----|-----------------------|
|----------------|-----------------------|
|-3-3---3--------|-----------------------|
|
| PM PM ~~ PM--------------------
| E E E E E Q. E E E E E E E E
|----------------|-----------------------|
|----------------|-----------------------|
|-----5---5-3----|-----------------------|
|-----5---5-3----|--5--5--5-5-5-5-5--5---|
|----------------|--3--3--3-3-3-3-3--3---|
|-3-3---3--------|-----------------------|


~~ ~~~~~~~~
Q E E Q E E Q E E Q E E
|----------------------|-----------------------|
|----------------12s15-|-----------------10s12-|
|-----12-12-12---------|------12-12-12---------|
|----------------------|-\9--------------------|
|----------------------|-----------------------|
|----------------------|-----------------------|
|
|-------------------------------------------|
| E E E E E E E E E E E E E E E E
|----------------------|-----------------------|
|----------------------|-----------------------|
|----------------------|-----------------------|
|----------------------|-----------------------|
|-5-5--7--7--5-5--7--7-|--5-5--7--7--5-5--7--7-|
|-3-3--3--3--3-3--3--3-|--3-3--3--3--3-3--3--3-|


~~~~~~~~
Q E E Q E E E E E E E E E E
|------------------------|------------------------------|
|-----------------/12----|------------------------------|
|------12-12-12----------|-/12-----/16----/12-----/12---|
|-\x---12-------------12-|-----12\-----12-/12-12\-/12---|
|------------------------|------------------------------|
|------------------------|------------------------------|
|
| PM----------------------------------------------------
| E E E E E E E E E E E E E E E E
|------------------------|------------------------------|
|------------------------|------------------------------|
|------------------------|------------------------------|
|------------------------|------------------------------|
|--5-5--7--7--5-5---7--7-|---5--5----6--6---7--7----8-8-|
|--3-3--3--3--3-3---3--3-|---3--3----4--4---5--5----6-6-|


Q Q E E E E E E E E E E E E
|--------------------|-------------------|
|-----------4--------|------4------------|
|-/5---/5-------/5---|-/5-------/5-------|
|--------------------|----5----------8---|
|--------------------|-------------------|
|--------------------|-------------------|
|
|--------------------------------------|
| E E E E E E E E E E E E E E E E
|--------------------|-------------------|
|--------------------|-------------------|
|--------------------|-------------------|
|--5-5--7-7-5-5--7-7-|--5-5--------------|
|--3-3--3-3-3-3--3-3-|--3-3--------------|
|--------------------|------0-0--1-1-2-2-|


~~ ~~ ~~
E E E E E E E E E E E E Q Q
|--------------------------|-------------------------|
|-------------------/12-12-|-------/12---------------|
|-12----12----12-----------|-12-----------12---12\---|
|----12----12----12--------|----12-----12------------|
|--------------------------|-------------------------|
|--------------------------|-------------------------|
|
| PM-------------------------------------------------
| E E E E E E E E E E E E E E E E
|--------------------------|-------------------------|
|--------------------------|-------------------------|
|--------------------------|-------------------------|
|--------------------------|-------------------------|
|--5--5--7--7--5--5---7--7-|--5--5---7--7--5-5--7--7-|
|--3--3--3--3--3--3---3--3-|--3--3---3--3--3-3--3--3-|


|3|
E E E E E E Q E Q Q Q Q
|-------------------|-------------------|
|---------/7-/7s==5-|-------------------|
|-7---7-------------|-7s5-/5---\3---0---|
|---7---7-----------|-------------------|
|-------------------|-------------------|
|-------------------|-------------------|
|
|-------------------------------------|
| E E E E E E E E E E E E E E E E
|-------------------|-------------------|
|-------------------|-------------------|
|-------------------|-------------------|
|-7-7-9-9--7--7-9-9-|-5-5--7-7--5-5-7-7-|
|-5-5-5-5--5--5-5-5-|-3-3--3-3--3-3-3-3-|
|-------------------|-------------------|


Abadd9
E E E E E E E E E E E E +H
|-------20-16---------------|---------------------*|
|---/20--------15-----------|---------------------*|
|-----------------/17s15-12-|-12---/12-10-(10)----*|
|---------------------------|-12------------------*|
|---------------------------|---------------------*|
|---------------------------|---------------------*|
|
| Q H. Q E E +H
|---------------------------|--------6--5--(5)----*|
|---------------------------|---------------------*|
|---------------------------|--------5--4--(4)----*|
|---------------------------|--------6--5--(5)----*|
|-5-------------------------|---------------------*|
|-3-------------------------|---------------------*|



Duration Legend
---------------
W - whole; H - half; Q - quarter; E - 8th; S - 16th; T - 32nd; X - 64th; a - acciaccatura
+ - note tied to previous; . - note dotted; .. - note double dotted
Uncapitalized letters represent notes that are staccato (1/2 duration)
Irregular groupings are notated above the duration line
Duration letters will always appear directly above the note/fret number it represents the
duration for. Duration letters with no fret number below them represent rests. Multi-
bar rests are notated in the form Wxn, where n is the number of bars to rest for. Low
melody durations appear below the staff

Tablature Legend
----------------
h - hammer-on
p - pull-off
b - bend
pb - pre-bend
r - bend release (if no number after the r, then release immediately)
/\ - slide into or out of (from/to "nowhere")
s - legato slide
S - shift slide
- natural harmonic
[n] - artificial harmonic
n(n) - tapped harmonic
~ - vibrato
tr - trill
T - tap
TP - trem. picking
PM - palm muting
\n/ - tremolo bar dip; n = amount to dip
\n - tremolo bar down
n/ - tremolo bar up
/n\ - tremolo bar inverted dip
= - hold bend; also acts as connecting device for hammers/pulls
- volume swell (louder/softer)
x - on rhythm slash represents muted slash
o - on rhythm slash represents single note slash

Misc Legend
-----------
| - bar
|| - double bar
||o - repeat start
o|| - repeat end
*| - double bar (ending)
: - bar (freetime)
$ - Segno
& - Coda
Tempo markers - = BPM(8/16=s8/s16), where s8 = swing 8ths, s16 = swing 16ths

Tunning: Standard (E A D G B e)
Tabbed by:Carltyler
Email:tylers-2468@peoplepc.com
Artist: ZZtop
Song: Tush
Album: Fandango!
Tuning:Open G6 Low to High (DADGBE)

I could not find any tab this close so leave comments and rate thanks.
And leave corrections if you please.


TUSH

E|--------------------------------------------------------------------------|
B|--------------------------------------------------------------------------|
G|------5---5-3-----5---5-3--------5---5-3----5---5-3-----------------------|
D|------5---5-3-----5---5-3--------5---5-3----5---5-3-----------------------|
G|--0-0---0-------0---0----------0---0------0---0-------0-------------------|
D|---------------------------3/5--------------------------3/4---------------|
Verse B
E|--------------------------------------------------------------------------|
B|--------------------------------------------------------------------------|
G|----5---5-3-----------5---5-3-------5---5-3------5---5-3------------------|
D|----5---5-3-----------5---5-3-------5---5-3------5---5-3------------------|
G|--0---0------0------0---0---------0---0--------0---0----------------------|
D|---------------3/5--------------5------------5----------------------------|

E|--------------------------------------------------------------------------|
B|--------------------------------------------------------------------------|
G|------5---5---5---5-5------------------5---5-3----5---5-3--5--------------|
D|--5-5-7-7-8-5-7-7-5-5------------------5---5-3----5---5-3--5-0------------|
G|--5-5-5-5-5-5-5-5-5-5----------------0---0------0---0---------------------|
D|-----------------------2-2-3-3-4-4-5--------------------------------------|

E|--------------------------------------------------------------------------|
B|--------------------------------------------------------------------------|
G|--------------------------------------------------------------------------|
D|--7-7-9---10---9---5-5-7-5-----7--------2---3---2---0---------------------|
G|--7---7-7-7--7-7-0-5-5-5-5-5-5-5-----0--0-0-0-0-0-0-0-5-6-7---------------|
D|---------------------------------3/5--------------------------------------|
Solo (use a slide)
E|--------------------------------------------------------------------------|
B|--/12----------------12\--------------/12-------12----------12\-----------|
G|------12-12--12--12--12\--12----12-----------12----12\10-10---------------|
D|--------------------------12-12----12-----12------------------------------|
G|--------------------------------------------------------------------------|
D|--------------------------------------------------------------------------|

E|--------------------------------------------------------------------------|
B|-------5-----/5---------------------------/12-----------------------------|
G|---/5----/5--/5--5--\3-5--/4-/4\0--/12----/12-12\10/----\10-X-------------|
D|---/5----/5------5-----5---------------12------------12-------------------|
G|--------------------------------------------------------------------------|
D|--------------------------------------------------------------------------|

E|---------------------------------------------------------------------------|
B|-----12-12-12-12-12-----12-12-12\-----12-----12-12-12\-----12-12\10--------|
G|----------------------------------------------------------------------12---|
D|-/12----------------/12-----------/12----/12-----------/12----------12--12-|
G|---------------------------------------------------------------------------|
D|---------------------------------------------------------------------------|

E|---------------------------------------------------------------------------|
B|-10/12\-----/5--5--5--6--------5--5----------------------------------------|
G|-10/12\-----/5-----------6\5---------5\3\0--12-12-12\10----/12/12----------|
D|-------------------------6\5-0--------------------------12--------12\10----|
G|------------------------------------------------------------------------12-|
D|---------------------------------------------------------------------------|

E|----------------------15-15-15\13----/19--------15------------------------|
B|---------11/12----/15-------------15-----\17-15----\13/12/12--------------|
G|---12----------12--------------------------------------------12\10--------|
D|------12-----------------------------------------------------------12-----|
G|--------------------------------------------------------------------------|
D|--------------------------------------------------------------------------|

E|----------------------------------------------|
B|-12-12-12\10----------------------------------| Go back to verse B
G|-12-12-12\10---12----------12-----------------| then play outro.
D|-------------12--12\10\9-9--------------------|
G|----------------------------------------------|
D|----------------------------------------------|
Outro Solo
E|--------------------------------------------------------------------------|
B|--/16------8/X/-----------12/15-----------/11/13-0--------/12-------------|
G|-----\14\X/8/X/--12-12-12-----------12-12--------0--12-12-----------------|
D|--------------------------------\9------------------12--------10----------|
G|--------------------------------------------------------------------------|
D|--------------------------------------------------------------------------|

E|--------------------------------------------------------------------------|
B|---------/12----------------5---------/5-------------/5-------------------|
G|---/12---------/-12----/12\-5----/5--------/5---/5-0----0-/5--3/0---------|
D|------\10----10/-12--10/12\----5----5----5----5---------------------------|
G|--------------------------------------------------------------------------|
D|--------------------------------------------------------------------------|

E|--------------------------------------------------------------------------|
B|--------------------12\11/12-------/12----------------------/6--/7\5------|
G|--12----12----12-------------12-----------12--12\---7---7-----------------|
D|-----12----12----12-------------12-----12--------/7---7---7---------------|
G|--------------------------------------------------------------------------|
D|--------------------------------------------------------------------------|
END
E|--------------------------------20-16--------------------------------------|
B|----------------------------/20-------15-/13\11----------------------------|
G|---\5---5---/3---0------------------------------12-------/12---10----------|
D|------5---5----------------------------------------12----------------------|
G|---------------------------------------------------------------------------|
D|---------------------------------------------------------------------------|

ENJOY
Tunning: Standard (E A D G B e)
TUSH - ZZ Top

Standard Tuning (E A D G B E)

Moderately Fast Rock Q=146(8=s8)
4/4
Gtr I
PM| PM ~ PM PM ~~~ PM PM ~ PM PM ~~~~~~
E E E E E Q E E E E E +Q. E E E E E E Q E E E E E +Q E E
|----------------|-----------------|----------------|------------------|
|----------------|-----------------|----------------|------------------|
|-----5-x-5-3----|-5-x-5-3-(3)-----|-----5-x-5-3----|-5-x-5-3-(3)------|
|-----5-x-5-3----|-5-x-5-3-(3)-----|-----5-x-5-3----|-5-x-5-3-(3)------|
|----------------|-----------------|----------------|------------------|
|-3-3----------3-|---------------1s|=3-3----------3-|-------------3-1s=|


$
PM PM PM PM ~~~~~~ PM PM ~ PM PM ~
E E E E E Q E E E E E +Q E E E E E E E Q E E E E E E Q E
|----------------|------------------||-----------------|----------------|
|----------------|------------------||o----------------|----------------|
|-----5-x-5-3----|-5-x-5-3-(3)------||------5-x-5-3----|-----5-x-5-3----|
|-----5-x-5-3----|-5-x-5-3-(3)------||------5-x-5-3----|-----5-x-5-3----|
|----------------|------------------||o----------------|----------------|
|-3-3----------3-|--------------3-1s||==3-3----------1s|=3-3----------3-|


PM ~ PM PM ~~ PM------------|
+Q E E E Q E E E E E E Q. E E E E E E E E E E E E E E E E
|-----------------|----------------|-----------------|-----------------|
|-----------------|----------------|-----------------|-----------------|
|------5-x-5-3----|-----5-x-5-3----|-0-0-2-2-3-3-2-2-|-0-0-------------|
|------5-x-5-3----|-----5-x-5-3----|-x-x-x-x-x-x-x-x-|-x-x-------------|
|-----------------|----------------|-3-3-3-3-3-3-3-3-|-3-3-------------|
|-(3)-----------3-|-3-3------------|-----------------|-----0-0-1-1-2-2-|


~ ~~~~~~ PM------------------------------|
E E E E E Q E E E E E +H E E E E E E E E E E E E E E E E
|----------------|----------------|-------------------|------------------|
|----------------|----------------|-------------------|------------------|
|-----5-x-5-3----|-5-x-5-3-(3)----|--2-2-4-4-2-2-4-4--|-0-0-2-2-3-3-2----|
|-----5-x-5-3----|-5-x-5-3-(3)----|--0-0-0-0-0-0-0-0--|-x-x-x-x-x-x-x----|
|----------------|----------------|-------------------|-3-3-3-3-3-3-3----|
|-3-3----------3-|----------------|-------------------|---------------2s=|


1. 2.
To Coda
PM--------------| PM----------------| ~~~~~~
E E E E E E E E E E E E +Q. E E E E E E E E E E E E E +Q. E
|-----------------|------------------||-----------------|------------------|
|-----------------|-----------------o||-----------------|------------------|
|-----------------|------------------||-----------------|------------------|
|---0-2-2-3-3-2-2-|-0-5-6-7-(7)------||-0-0-2-2-3-3-2-2-|-0-5-6-7-(7)---12-|
|---x-x-x-x-x-x-x-|-x-3-4-5-(5)-----o||-x-x-x-x-x-x-x-x-|-x-3-4-5-(5)------|
|-3-3-3-3-3-3-3-3-|-3-------------1--||-3-3-3-3-3-3-3-3-|-3----------------|


Gtr II
~~~~~~~~~~~~~~~~~~~~~~~~~~~~~~~~~~~
E E E E +Q Q Q Q Q Q
|-------------------------|----------------------|
|-------------------------|----------------------|
|-------12-12-(12)---12---|-12---12---12---12\---|
|-0-/12-------------------|------12--------12\---|
|-------------------------|----------------------|
|-------------------------|----------------------|
|
| Gtr I
| PM----------------------------------------------
| E E E E E E E E E E E E E E E E
|-------------------------|----------------------|
|-------------------------|----------------------|
|-------------------------|----------------------|
|-0---0--2--2---0--0--2-2-|--0-0--2-2--0-0--2--2-|
|-x---x--x--x---x--x--x-x-|--x-x--x-x--x-x--x--x-|
|-3---3--3--3---3--3--3-3-|--3-3--3-3--3-3--3--3-|


Q E E Q E E E E E E E E E E
|-------------------------|-------------------------|
|-------------/12---------|-12----12----------------|
|-/12---12----------12----|-------------------12S4s=|
|----------12----------12-|----12----12s10-10-------|
|-------------------------|-------------------------|
|-------------------------|-------------------------|
|
|------------------------------------------------|
| E E E E E E E E E E E E E E E E
|-------------------------|-------------------------|
|-------------------------|-------------------------|
|-------------------------|-------------------------|
|---0-0--2--2---0-0--2--2-|-------------------------|
|---x-x--x--x---x-x--x--x-|--5--5--6--6--7--7--8-8--|
|---3-3--3--3---3-3--3--3-|--3--3--4--4--5--5--6-6--|


Q Q Q Q Q a Q Q E E
|-------------------------|-------------------------|
|--------5-----------5----|-------------------------|
|--5----------/5-----5----|--5--5s=3-----5----/4-/4p|
|-------------/5----------|--5----------------------|
|-------------------------|-------------------------|
|-------------------------|-------------------------|
|
| PM------------------------------------------------
| E E E E E E E E E E E E E E E E
|-------------------------|-------------------------|
|-------------------------|-------------------------|
|-------------------------|-------------------------|
|-------------------------|-------------------------|
|-10-10-12-12-10-10-12-12-|-10-10-12-12-10-10-12-12-|
|--8--8--8--8--8--8--8--8-|--8--8--8--8--8--8--8--8-|

~~~ ~~~
Q H S S S S +Q H Q
|---------------------|------------------------|
|---------------------|------------------------|
|-0---12\-----3p0-3p0-|-(0)---/12-------12\----|
|-----12\-------------|-------/12--------------|
|---------------------|------------------------|
|---------------------|------------------------|
|
|-------------------------------------------|
| E E E E E E E E E E E E E E E E
|---------------------|------------------------|
|---------------------|------------------------|
|---------------------|------------------------|
|-0-0--2--2-0-0-2-2---|--0--0---2-2-0-0--2--2--|
|-x-x--x--x-x-x-x-x---|--x--x---x-x-x-x--x--x--|
|-3-3--3--3-3-3-3-3---|--3--3---3-3-3-3--3--3--|


~
|-3--|
E E Q Q +E E E Q a E E Q E E
|-----------------------|--------------------|
|-----/6-/7-----------0-|--------------------|
|-7---------7---(7)s5---|-/5-5s3---/5-/3-3p==|
|-7---------7---(7)s5---|-/5-----0-/5--------|
|-----------------------|--------------------|
|-----------------------|--------------------|
|
| PM------------------------------------------
| E E E E E E E E E E E E E E E E
|-----------------------|--------------------|
|-----------------------|--------------------|
|-2-2--4--4-2-2--4--4---|--0-0-2-2--0--0-2-2-|
|-0-0--0--0-0-0--0--0---|--x-x-x-x--x--x-x-x-|
|-----------------------|--3-3-3-3--3--3-3-3-|
|-----------------------|--------------------|


Q E E E E E E H +E +E Q
|--------------------------|-----------------------|
|----------/12-------------|-----------------------|
|-0-/12--------12-\10------|-\10-----(10)-(10)/----|
|-------12------------12---|-----------------------|
|--------------------------|-----------------------|
|--------------------------|-----------------------|
|
|-----------------------------------------|
| E E E E E E E E E E E E +H
|--------------------------|-----------------------|
|--------------------------|-----------------------|
|--------------------------|-----------------------|
|-0---0--2---2--0---0--2-2-|---0-5-6---7---(7)-----|
|-x---x--x---x--x---x--x-x-|---x-3-4---5---(5)-----|
|-3---3--3---3--3---3--3-3-|---3-------------------|

|----3----| |----3----| |--3--| |---3---|
Q Q Q Q Q Q Q Q Q Q Q Q
|--------------------------------|--------------------------|
|-------12---12---12---12---12---|-----12-12-12\-----12-----|
|--------------------------------|--------------------------|
|-/12----------------------------|-/12-----------/12--------|
|--------------------------------|--------------------------|
|--------------------------------|--------------------------|
|
| PM----------------------------------------------------|
| E E E E E E E E E E E E E E E E
|--------------------------------|--------------------------|
|--------------------------------|--------------------------|
|--------------------------------|--------------------------|
|---0-0----2----2--0-0--2-2------|---0--0--2--2----0--0-2-2-|
|---x-x----x----x--x-x--x-x------|---x--x--x--x----x--x-x-x-|
|---3-3----3----3--3-3--3-3------|---3--3--3--3----3--3-3-3-|

[ Tab from: http://www.guitaretab.com/z/zz-top/21266.html ]
|----3----| |-----3-----| |---3---|
Q Q Q Q Q Q E E E Q Q Q
|----------------------------------|--------------------------|
|-------12---12---12\---------12---|-12s10-----------10---12--|
|----------------------------------|---------12-12---10---12--|
|-/12-------------------/12--------|--------------------------|
|----------------------------------|--------------------------|
|----------------------------------|--------------------------|
|
| PM--------------------------------------------------|
| E E E E E E E E E E E E E E E E
|----------------------------------|--------------------------|
|----------------------------------|--------------------------|
|----------------------------------|--------------------------|
|---0-0----2----2--0--0-----2----2-|--------------------------|
|---x-x----x----x--x--x-----x----x-|--5--5-6--6--7-7--8-8-----|
|---3-3----3----3--3--3-----3----3-|--3--3-4--4--5-5--6-6-----|


~ ~~~~~~
Q Q Q E E Q Q Q E E
|------------------|-----------------|
|-/5---5---5---6---|-----5---5-------|
|----------------7s|=5-----------5s3S|
|------------------|-----------------|
|------------------|-----------------|
|------------------|-----------------|
|
| PM---------------------------------
| E E E E E E E E E E E E E E E E
|------------------|-----------------|
|------------------|-----------------|
|--0-0-2-2-0-0-2-2-|-0-0-------------|
|--x-x-x-x-x-x-x-x-|-x-x-------------|
|--3-3-3-3-3-3-3-3-|-3-3-------------|
|------------------|-----0-0-1-1-2-2-|

~~
|3-|
E E E Q E E E E E E E E Q E E
|--------------------------|-----------------------15-|
|-------------/11-11-------|-------/11-12------/15----|
|-12-12-12s10--------10----|-12-----------12----------|
|-----------------------12-|----12--------------------|
|--------------------------|--------------------------|
|--------------------------|--------------------------|
|
|--------------------------------------------------|
| E E E E E E E E E E E E E E E E
|--------------------------|--------------------------|
|--------------------------|--------------------------|
|--------------------------|--------------------------|
|--0--0--2--2---0--0--2--2-|--0--0---2--2--0-0---2--2-|
|--x--x--x--x---x--x--x--x-|--x--x---x--x--x-x---x--x-|
|--3--3--3--3---3--3--3--3-|--3--3---3--3--3-3---3--3-|


|--3--| |--3--| |---3---| |--3--|
E E E E E Q Q Q Q Q Q Q E E E
|-15-15-15s13----/18S13----|-15\-----------------------|
|-------------15--------15-|-----13-/12-/12---12s10----|
|--------------------------|------------------12s10----|
|--------------------------|------------------------12-|
|--------------------------|---------------------------|
|--------------------------|---------------------------|
|
| PM---------------------------------------------------
| E E E E E E E E E E E E E E E E
|--------------------------|---------------------------|
|--------------------------|---------------------------|
|--2--2--4--4--2---2--4--4-|--0---0---2---2-0--0--2--2-|
|--0--0--0--0--0---0--0--0-|--x---x---x---x-x--x--x--x-|
|--------------------------|--3---3---3---3-3--3--3--3-|
|--------------------------|---------------------------|


D.S. al Coda
~~~~~
|--3--| |--3---|
E E E E E Q Q Q E Q E +H
|--------------------------|---------------------|
|-12-12-12s10--------------|---------------------|
|-12-12-12s10----12--------|---/12---14-(14)/----|
|-------------12----12\-10-|-9-------------------|
|--------------------------|---------------------|
|--------------------------|---------------------|
|
|----------------------------|
| E E E E E E E E E E E E +H
|--------------------------|---------------------|
|--------------------------|---------------------|
|--------------------------|---------------------|
|--0--0--2--2--0--0--2---2-|-0---5-6--7--(7)-----|
|--x--x--x--x--x--x--x---x-|-x---3-4--5--(5)-----|
|--3--3--3--3--3--3--3---3-|-3-------------------|

&
PM ~~
E E E E E Q. e Q. Q E +E
|----------------|-12--------------------|
|----------------|------------7s==8-(8)/-|
|-----5-x-5-3----|----12\-----7s==8-(8)/-|
|-----5-x-5-3----|-----------------------|
|----------------|-----------------------|
|-3-3------------|-----------------------|
|
| PM PM ~~ PM--------------------
| E E E E E Q. E E E E E E E E
|----------------|-----------------------|
|----------------|-----------------------|
|-----5-x-5-3----|--0--0--0-0-0-0-0--0---|
|-----5-x-5-3----|--x--x--x-x-x-x-x--x---|
|----------------|--3--3--3-3-3-3-3--3---|
|-3-3------------|-----------------------|

~~ ~~~~~~~~
Q E E Q E E Q E E Q E E
|----------------------|-----------------------|
|----------------12s15-|-----------------10s12-|
|-----12-12-12---------|------12-12-12---------|
|----------------------|-\9--------------------|
|----------------------|-----------------------|
|----------------------|-----------------------|
|
|-------------------------------------------|
| E E E E E E E E E E E E E E E E
|----------------------|-----------------------|
|----------------------|-----------------------|
|----------------------|-----------------------|
|-0-0--2--2--0-0--2--2-|--0-0--2--2--0-0--2--2-|
|-x-x--x--x--x-x--x--x-|--x-x--x--x--x-x--x--x-|
|-3-3--3--3--3-3--3--3-|--3-3--3--3--3-3--3--3-|

~~~~~~~~
Q E E Q E E E E E E E E E E
|------------------------|------------------------------|
|-----------------/12----|------------------------------|
|------12-12-12----------|-/12-----/16----/12-----/12---|
|-\x---12-------------12-|-----12\-----12-/12-12\-/12---|
|------------------------|------------------------------|
|------------------------|------------------------------|
|
| PM----------------------------------------------------
| E E E E E E E E E E E E E E E E
|------------------------|------------------------------|
|------------------------|------------------------------|
|------------------------|------------------------------|
|--0-0--2--2--0-0---2--2-|------------------------------|
|--x-x--x--x--x-x---x--x-|---5--5----6--6---7--7----8-8-|
|--3-3--3--3--3-3---3--3-|---3--3----4--4---5--5----6-6-|

Q Q E E E E E E E E E E E E
|--------------------|-------------------|
|-----------4--------|------4------------|
|-/5---/5-------/5---|-/5-------/5-------|
|--------------------|----5----------8---|
|--------------------|-------------------|
|--------------------|-------------------|
|
|--------------------------------------|
| E E E E E E E E E E E E E E E E
|--------------------|-------------------|
|--------------------|-------------------|
|--0-0--2-2-0-0--2-2-|--0-0--------------|
|--x-x--x-x-x-x--x-x-|--x-x--------------|
|--3-3--3-3-3-3--3-3-|--3-3--------------|
|--------------------|------0-0--1-1-2-2-|

~~ ~~ ~~
E E E E E E E E E E E E Q Q
|--------------------------|-------------------------|
|-------------------/12-12-|-------/12---------------|
|-12----12----12-----------|-12-----------12---12\---|
|----12----12----12--------|----12-----12------------|
|--------------------------|-------------------------|
|--------------------------|-------------------------|
|
| PM-------------------------------------------------
| E E E E E E E E E E E E E E E E
|--------------------------|-------------------------|
|--------------------------|-------------------------|
|--------------------------|-------------------------|
|--0--0--2--2--0--0---2--2-|--0--0---2--2--0-0--2--2-|
|--x--x--x--x--x--x---x--x-|--x--x---x--x--x-x--x--x-|
|--3--3--3--3--3--3---3--3-|--3--3---3--3--3-3--3--3-|

|3|
E E E E E E Q E Q Q Q Q
|-------------------|-------------------|
|---------/7-/7s==5-|-------------------|
|-7---7-------------|-7s5-/5---\3---0---|
|---7---7-----------|-------------------|
|-------------------|-------------------|
|-------------------|-------------------|
|
|-------------------------------------|
| E E E E E E E E E E E E E E E E
|-------------------|-------------------|
|-------------------|-------------------|
|-2-2-4-4--2--2-4-4-|-0-0--0-0--0-0-0-0-|
|-0-0-0-0--0--0-0-0-|-x-x--x-x--x-x-x-x-|
|-------------------|-3-3--3-3--3-3-3-3-|
|-------------------|-------------------|

Abadd9
E E E E E E E E E E E E +H
|-------20-16---------------|---------------------*|
|---/20--------15-----------|---------------------*|
|-----------------/17s15-12-|-12---/12-10-(10)----*|
|---------------------------|-12------------------*|
|---------------------------|---------------------*|
|---------------------------|---------------------*|
|
| Q H. Q E E +H
|---------------------------|--------6--5--(5)----*|
|---------------------------|---------------------*|
|---------------------------|--------5--4--(4)----*|
|---------------------------|--------6--5--(5)----*|
|-5-------------------------|---------------------*|
|-3-------------------------|---------------------*|
Song info
Tush
ZZ Top
2001
  • Rock
  • Blues Rock
  • Classic Rock
Alternative tracks
Similar songs
Summertime - Janis Joplin
Hello I Love You - The Doors
Perfect Day - Lou Reed
Rebel Rebel - David Bowie
157 Riverside Avenue - REO Speedwagon

Hi! Hope you enjoy backing track experience.
If you want to help us in the development of the project, feel free to donate!