The Man Who Sold The World - Nirvana
00:00 / 00:00
Tabs and lyrics
Tunning: Standard (E A D G B e)
The man who sold the world – Nirvana


[1st Guitar]


[Intro] (with overdrive)

E|---------------------|---------------------|\
H|---------------------|---------------------| \
G|-2-2-2-0^(0)-2^3^2-0-|-2-2-2-0^(0)-2^3^2-0-| \ (two
D|---------------------|---------------------| / times)
A|---------------------|---------------------| /
E|---------------------|---------------------|/

E|---------------------|---------------------|---------------------|
H|---------------------|---------------------|---------------------|
G|-2-2-2-0^(0)-2^3^2-0-|-2-2-2-0^(0)-2^3^2-0-|-2(let ring)---------|
D|---------------------|---------------------|---------------------|
A|---------------------|---------------------|---------------------|
E|---------------------|---------------------|---------------------|


[Chorus]

E|-----------------|-----------------|-----------------|
H|-----------------|-----------------|-----------------|
G|-----------2-3-5-|-----------------|-----------------|
D|-----2-3-5-------|-----------0-2-3-|---------3-------|
A|-3-5-------------|-----0-1-3-------|-4-----4-----4---|
E|-----------------|-1-3-------------|-----------------|

E|-----------------|-----------------|-----------------|-1---1-1^(1)-1-1---|
H|-----------------|-----------------|-----------------|-2---2-2^(2)-2-2-0-|
G|-----------------|-----------2-3-5-|-----------------|-1---1-1^(1)-1-1-0-|
D|-----------0-2-3-|-----2-3-5-------|-----------0-2-3-|-3---3-3^(3)-3-3---|
A|-----0-1-3-------|-3-5-------------|-----0-1-3-------|-4---4-4^(4)-4-4---|
E|-1-3-------------|-----------------|-1-3-------------|-------------------|


[Bridge]

E|---------------------|---------------------|---------------------|
H|-2---2---------------|---------------------|---------------------|
G|-2-----0^(0)-2^3^2-0-|-2-2-2-0^(0)-2^3^2-0-|-2-2-2-0^(0)-2^3^2-0-|
D|---------------------|---------------------|---------------------|
A|---------------------|---------------------|---------------------|
E|---------------------|---------------------|---------------------|

E|---------------------|---------------------|---------------------|----|----|
H|---------------------|---------------------|---------------------|----|----|
G|-2-2-2-0^(0)-2^3^2-0-|-2-2-2-0^(0)-2^3^2-0-|-2-2-2-0^(0)-2^3^2-0-|-2(let ring)
D|---------------------|---------------------|---------------------|----|----|
A|---------------------|---------------------|---------------------|----|----|
E|---------------------|---------------------|---------------------|----|----|


[Chorus]

E|-----------------|-----------------|-----------------|
H|-----------------|-----------------|-----------------|
G|-----------2-3-5-|-----------------|-----------------|
D|-----2-3-5-------|-----------0-2-3-|---------3-------|
A|-3-5-------------|-----0-1-3-------|-4-----4-----4---|
E|-----------------|-1-3-------------|-----------------|

E|-----------------|-----------------|-----------------|-1---1-1^(1)-1-1---|
H|-----------------|-----------------|-----------------|-2---2-2^(2)-2-2-0-|
G|-----------------|-----------2-3-5-|-----------------|-1---1-1^(1)-1-1-0-|
D|-----------0-2-3-|-----2-3-5-------|-----------0-2-3-|-3---3-3^(3)-3-3---|
A|-----0-1-3-------|-3-5-------------|-----0-1-3-------|-4---4-4^(4)-4-4---|
E|-1-3-------------|-----------------|-1-3-------------|-------------------|


[Bridge]

E|---------------------|---------------------|---------------------|-----------------|
H|-2---2---------------|---------------------|---------------------|-----------------|
G|-2-----0^(0)-2^3^2-0-|-2-2-2-0^(0)-2^3^2-0-|-2-2-2-0^(0)-2^3^2-0-|-2-2-2-0-0-0-2---|
D|---------------------|---------------------|---------------------|-----------------|
A|---------------------|---------------------|---------------------|-----------------|
E|---------------------|---------------------|---------------------|-----------------|


[Chorus]

E|-----------------|-----------------|-----------------|
H|-----------------|-----------------|-----------------|
G|-----------2-3-5-|-----------------|-----------------|
D|-----2-3-5-------|-----------0-2-3-|---------3-------|
A|-3-5-------------|-----0-1-3-------|-4-----4-----4---|
E|-----------------|-1-3-------------|-----------------|

E|-----------------|-----------------|-----------------|-1---1-1^(1)-1-1---|
H|-----------------|-----------------|-----------------|-2---2-2^(2)-2-2-0-|
G|-----------------|-----------2-3-5-|-----------------|-1---1-1^(1)-1-1-0-|
D|-----------0-2-3-|-----2-3-5-------|-----------0-2-3-|-3---3-3^(3)-3-3---|
A|-----0-1-3-------|-3-5-------------|-----0-1-3-------|-4---4-4^(4)-4-4---|
E|-1-3-------------|-----------------|-1-3-------------|-------------------|


[Solo & End]

E|---------------------|---------------------|---------------------|
H|-2---2---------------|---------------------|---------------------|
G|-2---2-0^(0)-2^3^2-0-|-2-2-2-0^(0)-2^3^2-0-|-2-2-2-0^(0)-2^3^2-0-|
D|---------------------|---------------------|---------------------|
A|---------------------|---------------------|---------------------|
E|---------------------|---------------------|---------------------|

E|---------------------|---------------------|---------------------|
H|---------------------|---------------------|---------------------|
G|-2-2-2-0^(0)-2^3^2-0-|-2-2-2-0^(0)-2^3^2-0-|-2-2-2-0^(0)-2^3^2-0-|
D|---------------------|---------------------|---------------------|
A|---------------------|---------------------|---------------------|
E|---------------------|---------------------|---------------------|

E|---------------------|---------------------|---------------------|
H|---------------------|---------------------|---------------------|
G|-2-2-2-0^(0)-2^3^2-0-|-2-2-2-0^(0)-(2)-2///|/8///10^^^(10)\\\9---|
D|---------------------|---------------------|---------------------|
A|---------------------|---------------------|---------------------|
E|---------------------|---------------------|---------------------|

E|---------------------|-----------------|-------------------------|
H|---------------------|-----------------|-------------------------|
A|-2-2-2-0^(0)-2^3^2-0-|-2-2-2-0-0-2-2///|/10---10-10^(10)-10-10---|
D|---------------------|-----------------|-------------------------|
A|---------------------|-----------------|-------------------------|
E|---------------------|-----------------|-------------------------|

E|-------------------------|-------------------|-------------------|
H|-------------------------|-------------------|-------------------|
G|-10---10-10^(10)-10-10\9-|-9\\\7-7^(7)-7-7---|-7---7-7^(7)-7-7---|
D|-------------------------|-------------------|-------------------|
A|-------------------------|-------------------|-------------------|
E|-------------------------|-------------------|-------------------|

E|-------------------|-------------------|---------------------|
H|-------------------|-------------------|---------------------|
G|-7/9-9-9^(9)-9-9-9-|-9---9-9^(9)-9-9\\\|\2-2-2-0^(0)-2^3^2-0-|
D|-------------------|-------------------|---------------------|
A|-------------------|-------------------|---------------------|
E|-------------------|-------------------|---------------------|

E|-----------------|-------------------------|-------------------------|
H|-----------------|-------------------------|-------------------------|
G|-2-2-2-0-0-2-2///|/10---10-10^(10)-10-10---|-10---10-10^(10)-10-10\9-|
D|-----------------|-------------------------|-------------------------|
A|-----------------|-------------------------|-------------------------|
E|-----------------|-------------------------|-------------------------|

E|-------------------|-------------------|-------------------|
H|-------------------|-------------------|-------------------|
G|-9\\\7-7^(7)-7-7---|-7---7-7^(7)-7-7/9-|-9---9-9^(9)-9-9-9-|
D|-------------------|-------------------|-------------------|
A|-------------------|-------------------|-------------------|
E|-------------------|-------------------|-------------------|

E|-------------------|---------------------|---------------------|----|
H|-------------------|---------------------|---------------------|----|
G|-9---9-9^(9)-9-9\\\|\2-2-2-0^(0)-2^3^2-0-|-2-2-2-0^(0)-2^3^2-0-|-2(let ring)
D|-------------------|---------------------|---------------------|----|
A|-------------------|---------------------|---------------------|----|
E|-------------------|---------------------|---------------------|----|



[2nd Guitar]


[Intro]

| | | | | F | | | |
E|----|----|----|----|-1---X-1^1-1-1-1-|-1---X-1^1-1-1-1-|-1 --|
H|----|----|----|----|-1---X-1^1-1-1-1-|-1---X-1^1-1-1-1-|-3(let --|
G|----|----|----|----|-2---X-2^2-2-2-2-|-1---X-1^1-1-1-1-|-2ring)--|
D|----|----|----|----|-3---X-3^3-3-3-3-|-1---X-1^1-1-1-1-|-0 --|
A|----|----|----|----|-3---X-3^3-3-3-3-|-1---X-1^1-1-1-1-|----|----|
E|----|----|----|----|-1---X-1^1-1-1-1-|-1---X-1^1-1-1-1-|----|----|
| | | | | A A V V A V | A A V V A V | A | |


[Verse]

| A | | dm | |
E|-0---X-0^0-0-0-0-|-0---X-0^0-0-0-0-|-1-1-X-1^1-1-1-1-|-1-1-X-1^1-1-1-1-|
H|-2---X-2^2-2-2-2-|-2---X-2^2-2-2-2-|-3-3-X-3^3-3-3-3-|-3-3-X-3^3-3-3-3-|
G|-2---X-2^2-2-2-2-|-2---X-2^2-2-2-2-|-2-2-X-2^2-2-2-2-|-2-2-X-2^2-2-2-2-|
D|-2---X-2^2-2-2-2-|-2---X-2^2-2-2-2-|-0-0-X-0^0-0-0-0-|-0-0-X-0^0-0-0-0-|
A|-0---X-0^0-0-0-0-|-0---X-0^0-0-0-0-|-----------------|-----------------|
E|-----------------|-----------------|-----------------|-----------------|
| A A V V A V | A A V V A V | A V A V V A V | A V A V V A V |

| A | | F | |
E|-0---X-0^0-0-0-0-|-0-0-X-0^0-0-0-0-|-1-1-X-1^1-1-1-1-|-1-1-X-1^1-1-1-1-|
H|-2---X-2^2-2-2-2-|-2-2-X-2^2-2-2-2-|-1-1-X-1^1-1-1-1-|-1-1-X-1^1-1-1-1-|
G|-2---X-2^2-2-2-2-|-2-2-X-2^2-2-2-2-|-2-2-X-2^2-2-2-2-|-2-2-X-2^2-2-2-2-|
D|-2---X-2^2-2-2-2-|-2-2-X-2^2-2-2-2-|-3-3-X-3^3-3-3-3-|-3-3-X-3^3-3-3-3-|
A|-0---X-0^0-0-0-0-|-0-0-X-0^0-0-0-0-|-3-3-X-3-3-3-3-3-|-3-3-X-3-3-3-3-3-|
E|-----------------|-----------------|-1-1-X-1-1-1-1-1-|-1-1-X-1-1-1-1-1-|
| A A V V A V | A V A V V A V | A V A V V A V | A V A V V A V |
2/4
| C | | A | |
E|-0-0-X-0^0-0-0-0-|-0-0-X-0^0-0-0-0-|-0-0-X-0^0-0-0-0-|-0-0-0-0-|
H|-1-1-X-1^1-1-1-1-|-1-1-X-1^1-1-1-1-|-2-2-X-2^2-2-2-2-|-2-2-2-2-|
G|-0-0-X-0^0-0-0-0-|-0-0-X-0^0-0-0-0-|-2-2-X-2^2-2-2-2-|-2-2-2-2-|
D|-2-2-X-2^2-2-2-2-|-2-2-X-2^2-2-2-2-|-2-2-X-2^2-2-2-2-|-2-2-2-2-|
A|-3-3-X-3^3-3-3-3-|-3-3-X-3^3-3-3-3-|-0-0-X-0^0-0-0-0-|-0-0-0-0-|
E|-----------------|-----------------|-----------------|---------|
| A V A V V A V | A V A V V A V | A V A V V A V | A V A V |
|/4
| dm | | C | |
E|-1---X-1^1-1-1-1-|-1---X-1^1-1-1-1-|-0-0-0-0-0-0-0-0-|-0-0-0-0-0-0-0-0-|
H|-3---X-3^3-3-3-3-|-3---X-3^3-3-3-3-|-1-1-1-1-1-1-1-1-|-1-1-1-1-1-1-1-1-|
G|-2---X-2^2-2-2-2-|-2---X-2^2-2-2-2-|-0-0-0-0-0-0-0-0-|-0-0-0-0-0-0-0-0-|
D|-0---X-0^0-0-0-0-|-0---X-0^0-0-0-0-|-2-2-2-2-2-2-2-2-|-2-2-2-2-2-2-2-2-|
A|-----------------|-----------------|-3-3-3-3-3-3-3-3-|-3-3-3-3-3-3-3-3-|
E|-----------------|-----------------|-----------------|-----------------|
| A A V V A V | A A V V A V | A V A V A V A V | A V A V A V A V |


[Chorus]

| C | F | C# | F |
E|-0-0-0-0-0-0-0-0-|-1-1-1-1-1-1-1-1-|-1---X-1^1-1-1-1-|-1-1-1-1-1-1-1-1-|
H|-1-1-1-1-1-1-1-1-|-1-1-1-1-1-1-1-1-|-2---X-2^2-2-2-2-|-1-1-1-1-1-1-1-1-|
G|-0-0-0-0-0-0-0-0-|-2-2-2-2-2-2-2-2-|-1---X-1^1-1-1-1-|-2-2-2-2-2-2-2-2-|
D|-2-2-2-2-2-2-2-2-|-3-3-3-3-3-3-3-3-|-3---X-3^3-3-3-3-|-3-3-3-3-3-3-3-3-|
A|-3-3-3-3-3-3-3-3-|-3-3-3-3-3-3-3-3-|-4---X-4^4-4-4-4-|-3-3-3-3-3-3-3-3-|
E|-----------------|-1-1-1-1-1-1-1-1-|-1---X-1^1-1-1-1-|-1-1-1-1-1-1-1-1-|
| A V A V A V A V | A V A V A V A V | A A V A V A V | A V A V A V A V |

| C | F | C# |
E|-0-0-0-0-0-0-0-0-|-1-1-1-1-1-1-1-1-|-1---X-1^1-1-1-1-|
H|-1-1-1-1-1-1-1-1-|-1-1-1-1-1-1-1-1-|-2---X-2^2-2-2-2-|
G|-0-0-0-0-0-0-0-0-|-2-2-2-2-2-2-2-2-|-1---X-1^1-1-1-1-|
D|-2-2-2-2-2-2-2-2-|-3-3-3-3-3-3-3-3-|-3---X-3^3-3-3-3-|
A|-3-3-3-3-3-3-3-3-|-3-3-3-3-3-3-3-3-|-3---X-3^3-3-3-3-|
E|-0-0-0-0-0-0-0-0-|-1-1-1-1-1-1-1-1-|-1---X-1^1-1-1-1-|
| A V A V A V A V | A V A V A V A V | A A V V A V |


[Bridge]

| A | | dm | | F | F | dm | |
E|-0 --|-1 --|-1---X-1^1-1-1-1-|-1---X-1^1-1-1-1-|-1 --|
H|-2(let --|-3(let --|-1---X-1^1-1-1-1-|-1---X-1^1-1-1-1-|-3(let --|
G|-2ring)--|-2ring)--|-2---X-2^2-2-2-2-|-2---X-2^2-2-2-2-|-2ring)--|
D|-2 --|-0 --|-3---X-3^3-3-3-3-|-3---X-3^3-3-3-3-|-0 --|
A|-0 --|----|----|-3---X-3^3-3-3-3-|-3---X-3^3-3-3-3-|----|----|
E|----|----|----|----|-1---X-1^1-1-1-1-|-1---X-1^1-1-1-1-|----|----|
| A | | A | | A A V V A V | A A V V A V | A | |


[Verse]

| A | | dm | |
E|-0---X-0^0-0-0-0-|-0---X-0^0-0-0-0-|-1-1-X-1^1-1-1-1-|-1-1-X-1^1-1-1-1-|
H|-2---X-2^2-2-2-2-|-2---X-2^2-2-2-2-|-3-3-X-3^3-3-3-3-|-3-3-X-3^3-3-3-3-|
G|-2---X-2^2-2-2-2-|-2---X-2^2-2-2-2-|-2-2-X-2^2-2-2-2-|-2-2-X-2^2-2-2-2-|
D|-2---X-2^2-2-2-2-|-2---X-2^2-2-2-2-|-0-0-X-0^0-0-0-0-|-0-0-X-0^0-0-0-0-|
A|-0---X-0^0-0-0-0-|-0---X-0^0-0-0-0-|-----------------|-----------------|
E|-----------------|-----------------|-----------------|-----------------|
| A A V V A V | A A V V A V | A V A V V A V | A V A V V A V |

| A | | F | |
E|-0---X-0^0-0-0-0-|-0-0-X-0^0-0-0-0-|-1-1-X-1^1-1-1-1-|-1-1-X-1^1-1-1-1-|
H|-2---X-2^2-2-2-2-|-2-2-X-2^2-2-2-2-|-1-1-X-1^1-1-1-1-|-1-1-X-1^1-1-1-1-|
G|-2---X-2^2-2-2-2-|-2-2-X-2^2-2-2-2-|-2-2-X-2^2-2-2-2-|-2-2-X-2^2-2-2-2-|
D|-2---X-2^2-2-2-2-|-2-2-X-2^2-2-2-2-|-3-3-X-3^3-3-3-3-|-3-3-X-3^3-3-3-3-|
A|-0---X-0^0-0-0-0-|-0-0-X-0^0-0-0-0-|-3-3-X-3-3-3-3-3-|-3-3-X-3-3-3-3-3-|
E|-----------------|-----------------|-1-1-X-1-1-1-1-1-|-1-1-X-1-1-1-1-1-|
| A A V V A V | A V A V V A V | A V A V V A V | A V A V V A V |
2/4
| C | | A | |
E|-0-0-X-0^0-0-0-0-|-0-0-X-0^0-0-0-0-|-0-0-X-0^0-0-0-0-|-0-0-0-0-|
H|-1-1-X-1^1-1-1-1-|-1-1-X-1^1-1-1-1-|-2-2-X-2^2-2-2-2-|-2-2-2-2-|
G|-0-0-X-0^0-0-0-0-|-0-0-X-0^0-0-0-0-|-2-2-X-2^2-2-2-2-|-2-2-2-2-|
D|-2-2-X-2^2-2-2-2-|-2-2-X-2^2-2-2-2-|-2-2-X-2^2-2-2-2-|-2-2-2-2-|
A|-3-3-X-3^3-3-3-3-|-3-3-X-3^3-3-3-3-|-0-0-X-0^0-0-0-0-|-0-0-0-0-|
E|-----------------|-----------------|-----------------|---------|
| A V A V V A V | A V A V V A V | A V A V V A V | A V A V |
|/4
| dm | | C | |
E|-1---X-1^1-1-1-1-|-1---X-1^1-1-1-1-|-0-0-0-0-0-0-0-0-|-0-0-0-0-0-0-0-0-|
H|-3---X-3^3-3-3-3-|-3---X-3^3-3-3-3-|-1-1-1-1-1-1-1-1-|-1-1-1-1-1-1-1-1-|
G|-2---X-2^2-2-2-2-|-2---X-2^2-2-2-2-|-0-0-0-0-0-0-0-0-|-0-0-0-0-0-0-0-0-|
D|-0---X-0^0-0-0-0-|-0---X-0^0-0-0-0-|-2-2-2-2-2-2-2-2-|-2-2-2-2-2-2-2-2-|
A|-----------------|-----------------|-3-3-3-3-3-3-3-3-|-3-3-3-3-3-3-3-3-|
E|-----------------|-----------------|-----------------|-----------------|
| A A V V A V | A A V V A V | A V A V A V A V | A V A V A V A V |


[Chorus]

| C | F | C# | F |
E|-0-0-0-0-0-0-0-0-|-1-1-1-1-1-1-1-1-|-1---X-1^1-1-1-1-|-1-1-1-1-1-1-1-1-|
H|-1-1-1-1-1-1-1-1-|-1-1-1-1-1-1-1-1-|-2---X-2^2-2-2-2-|-1-1-1-1-1-1-1-1-|
G|-0-0-0-0-0-0-0-0-|-2-2-2-2-2-2-2-2-|-1---X-1^1-1-1-1-|-2-2-2-2-2-2-2-2-|
D|-2-2-2-2-2-2-2-2-|-3-3-3-3-3-3-3-3-|-3---X-3^3-3-3-3-|-3-3-3-3-3-3-3-3-|
A|-3-3-3-3-3-3-3-3-|-3-3-3-3-3-3-3-3-|-4---X-4^4-4-4-4-|-3-3-3-3-3-3-3-3-|
E|-----------------|-1-1-1-1-1-1-1-1-|-1---X-1^1-1-1-1-|-1-1-1-1-1-1-1-1-|
| A V A V A V A V | A V A V A V A V | A A V A V A V | A V A V A V A V |

| C | F | C# | A | | dm | |
E|-0-0-0-0-0-0-0-0-|-1-1-1-1-1-1-1-1-|-1---X-1^1-1-1-1-|-0 --|-1 --|
H|-1-1-1-1-1-1-1-1-|-1-1-1-1-1-1-1-1-|-2---X-2^2-2-2-2-|-2(let --|-3(let --|
G|-0-0-0-0-0-0-0-0-|-2-2-2-2-2-2-2-2-|-1---X-1^1-1-1-1-|-2ring)--|-2ring)--|
D|-2-2-2-2-2-2-2-2-|-3-3-3-3-3-3-3-3-|-3---X-3^3-3-3-3-|-2 --|-0 --|
A|-3-3-3-3-3-3-3-3-|-3-3-3-3-3-3-3-3-|-3---X-3^3-3-3-3-|-0 --|----|----|
E|-0-0-0-0-0-0-0-0-|-1-1-1-1-1-1-1-1-|-1---X-1^1-1-1-1-|----|----|----|----|
| A V A V A V A V | A V A V A V A V | A A V V A V | A | | A | |

| C | F | C# | F |
E|-0-0-0-0-0-0-0-0-|-1-1-1-1-1-1-1-1-|-1---X-1^1-1-1-1-|-1-1-1-1-1-1-1-1-|
H|-1-1-1-1-1-1-1-1-|-1-1-1-1-1-1-1-1-|-2---X-2^2-2-2-2-|-1-1-1-1-1-1-1-1-|
G|-0-0-0-0-0-0-0-0-|-2-2-2-2-2-2-2-2-|-1---X-1^1-1-1-1-|-2-2-2-2-2-2-2-2-|
D|-2-2-2-2-2-2-2-2-|-3-3-3-3-3-3-3-3-|-3---X-3^3-3-3-3-|-3-3-3-3-3-3-3-3-|
A|-3-3-3-3-3-3-3-3-|-3-3-3-3-3-3-3-3-|-4---X-4^4-4-4-4-|-3-3-3-3-3-3-3-3-|
E|-----------------|-1-1-1-1-1-1-1-1-|-1---X-1^1-1-1-1-|-1-1-1-1-1-1-1-1-|
| A V A V A V A V | A V A V A V A V | A A V A V A V | A V A V A V A V |

| C | F | C# |
E|-0-0-0-0-0-0-0-0-|-1-1-1-1-1-1-1-1-|-1---X-1^1-1-1-1-|
H|-1-1-1-1-1-1-1-1-|-1-1-1-1-1-1-1-1-|-2---X-2^2-2-2-2-|
G|-0-0-0-0-0-0-0-0-|-2-2-2-2-2-2-2-2-|-1---X-1^1-1-1-1-|
D|-2-2-2-2-2-2-2-2-|-3-3-3-3-3-3-3-3-|-3---X-3^3-3-3-3-|
A|-3-3-3-3-3-3-3-3-|-3-3-3-3-3-3-3-3-|-3---X-3^3-3-3-3-|
E|-0-0-0-0-0-0-0-0-|-1-1-1-1-1-1-1-1-|-1---X-1^1-1-1-1-|
| A V A V A V A V | A V A V A V A V | A A V V A V |


[Solo & End]

| A | | dm | | F |
E|-0 --|-1 --|-1---X-1^(1)-1-1-1-|-1-1-X-1^(1)-1-1-1-|
H|-2(let --|-3(let --|-1---X-1^(1)-1-1-1-|-1-1-X-1^(1)-1-1-1-|
G|-2ring)--|-2ring)--|-2---X-2^(2)-2-2-2-|-2-2-X-2^(2)-2-2-2-|
D|-2 --|-0 --|-3---X-3^(3)-3-3-3-|-3-3-X-3^(3)-3-3-3-|
A|-0 --|----|----|-3---X-3^(3)-3-3-3-|-3-3-X-3^(3)-3-3-3-|
E|----|----|----|----|-1---X-1^(1)-1-1-1-|-1-1-X-1^(1)-1-1-1-|
| A | | A | | A A V V A V | A V A V V A V |

| dm | | A | |
E|-1-1-X-1^(1)-1-1-1-|-1-1-X-1^(1)-1-1-1-|-0-0-X-0^(0)-0-0-0-|-0-0-X-0^(0)-0-0-0-|
H|-3-3-X-3^(3)-3-3-3-|-3-3-X-3^(3)-3-3-3-|-2-2-X-2^(2)-2-2-2-|-2-2-X-2^(2)-2-2-2-|
G|-2-2-X-2^(2)-2-2-2-|-2-2-X-2^(2)-2-2-2-|-2-2-X-2^(2)-2-2-2-|-2-2-X-2^(2)-2-2-2-|
D|-0-0-X-0^(0)-0-0-0-|-0-0-X-0^(0)-0-0-0-|-2-2-X-2^(2)-2-2-2-|-2-2-X-2^(2)-2-2-2-|
A|-------------------|-------------------|-0-0-X-0^(0)-0-0-0-|-0-0-X-0^(0)-0-0-0-|
E|-------------------|-------------------|-------------------|-------------------|
| A A V V A V | A V A V V A V | A A V V A V | A V A V V A V |

| dm | | F | |
E|-1-1-X-1^(1)-1-1-1-|-1-1-X-1^(1)-1-1-1-|-1-1-X-1^(1)-1-1-1-|-1-1-X-1^(1)-1-1-1-|
H|-3-3-X-3^(3)-3-3-3-|-3-3-X-3^(3)-3-3-3-|-1-1-X-1^(1)-1-1-1-|-1-1-X-1^(1)-1-1-1-|
G|-2-2-X-2^(2)-2-2-2-|-2-2-X-2^(2)-2-2-2-|-2-2-X-2^(2)-2-2-2-|-2-2-X-2^(2)-2-2-2-|
D|-0-0-X-0^(0)-0-0-0-|-0-0-X-0^(0)-0-0-0-|-3-3-X-3^(3)-3-3-3-|-3-3-X-3^(3)-3-3-3-|
A|-------------------|-------------------|-3-3-X-3^(3)-3-3-3-|-3-3-X-3^(3)-3-3-3-|
E|-------------------|-------------------|-1-1-X-1-(1)-1-1-1-|-1-1-X-1-(1)-1-1-1-|
| A A V V A V | A V A V V A V | A A V V A V | A V A V V A V |

| dm | | A | |
E|-1-1-X-1^(1)-1-1-1-|-1-1-X-1^(1)-1-1-1-|-0-0-X-0^(0)-0-0-0-|-0-0-X-0^(0)-0-0-0-|
H|-3-3-X-3^(3)-3-3-3-|-3-3-X-3^(3)-3-3-3-|-2-2-X-2^(2)-2-2-2-|-2-2-X-2^(2)-2-2-2-|
G|-2-2-X-2^(2)-2-2-2-|-2-2-X-2^(2)-2-2-2-|-2-2-X-2^(2)-2-2-2-|-2-2-X-2^(2)-2-2-2-|
D|-0-0-X-0^(0)-0-0-0-|-0-0-X-0^(0)-0-0-0-|-2-2-X-2^(2)-2-2-2-|-2-2-X-2^(2)-2-2-2-|
A|-------------------|-------------------|-0-0-X-0^(0)-0-0-0-|-0-0-X-0^(0)-0-0-0-|
E|-------------------|-------------------|-------------------|-------------------|
| A A V V A V | A V A V V A V | A A V V A V | A V A V V A V |

| dm | | F | |
E|-1-1-X-1^(1)-1-1-1-|-1-1-X-1^(1)-1-1-1-|-1-1-X-1^(1)-1-1-1-|-1-1-X-1^(1)-1-1-1-|
H|-3-3-X-3^(3)-3-3-3-|-3-3-X-3^(3)-3-3-3-|-1-1-X-1^(1)-1-1-1-|-1-1-X-1^(1)-1-1-1-|
G|-2-2-X-2^(2)-2-2-2-|-2-2-X-2^(2)-2-2-2-|-2-2-X-2^(2)-2-2-2-|-2-2-X-2^(2)-2-2-2-|
D|-0-0-X-0^(0)-0-0-0-|-0-0-X-0^(0)-0-0-0-|-3-3-X-3^(3)-3-3-3-|-3-3-X-3^(3)-3-3-3-|
A|-------------------|-------------------|-3-3-X-3^(3)-3-3-3-|-3-3-X-3^(3)-3-3-3-|
E|-------------------|-------------------|-1-1-X-1-(1)-1-1-1-|-1-1-X-1-(1)-1-1-1-|
| A A V V A V | A V A V V A V | A A V V A V | A V A V V A V |

| dm | | A | |
E|-1-1-X-1^(1)-1-1-1-|-1-1-X-1^(1)-1-1-1-|-0-0-X-0^(0)-0-0-0-|-0-0-X-0^(0)-0-0-0-|
H|-3-3-X-3^(3)-3-3-3-|-3-3-X-3^(3)-3-3-3-|-2-2-X-2^(2)-2-2-2-|-2-2-X-2^(2)-2-2-2-|
G|-2-2-X-2^(2)-2-2-2-|-2-2-X-2^(2)-2-2-2-|-2-2-X-2^(2)-2-2-2-|-2-2-X-2^(2)-2-2-2-|
D|-0-0-X-0^(0)-0-0-0-|-0-0-X-0^(0)-0-0-0-|-2-2-X-2^(2)-2-2-2-|-2-2-X-2^(2)-2-2-2-|
A|-------------------|-------------------|-0-0-X-0^(0)-0-0-0-|-0-0-X-0^(0)-0-0-0-|
E|-------------------|-------------------|-------------------|-------------------|
| A A V V A V | A V A V V A V | A A V V A V | A V A V V A V |

| dm | | F |\
E|-1-1-X-1^(1)-1-1-1-|-1-1-X-1^(1)-1-1-1-|-1--| \
H|-3-3-X-3^(3)-3-3-3-|-3-3-X-3^(3)-3-3-3-|-1--| \
G|-2-2-X-2^(2)-2-2-2-|-2-2-X-2^(2)-2-2-2-|-2--| \(let
D|-0-0-X-0^(0)-0-0-0-|-0-0-X-0^(0)-0-0-0-|-3--| /ring)
A|-------------------|-------------------|-3--| /
E|-------------------|-------------------|-1--| /
| A A V V A V | A V A V V A V | A |/


***********************************************

| A Downstroke, with Pick
| V Upstroke, with Pick
| / Slide up
| \ Slide down
| ^(n) Bend

***********************************************
Tunning: Standard (E A D G B e)
Bowie played by Nirvana
Gtr. 1 (acous.)
an improved version with the Distortion guitar and Eb tuning


D#|--------------------------|--------------------------|
A#|--------------------------|--------------------------|
F#|--2--2--2--0----2h3p2--0--|--2--2--2--0----2h3p2--0--|
C#|--------------------------|--------------------------|
G#|--------------------------|--------------------------|
D#|--------------------------|--------------------------|


D#|--------------------------|--------------------------|
A#|--------------------------|--------------------------|
F#|--2--2--2--0----2h3p2--0--|--2--2--2--0----2h3p2--0--|
C#|--------------------------|--------------------------|
G#|--------------------------|--------------------------|
D#|--------------------------|--------------------------|


D#|--------------------------|--------------------------|--------------------||
A#|--------------------------|--------------------------|--------------------||
F#|--2--2--2--0----2h3p2--0--|--2--2--2--0----2h3p2--0--|--2----------------*||
C#|--------------------------|--------------------------|-------------------*||
G#|--------------------------|--------------------------|--------------------||
D#|--------------------------|--------------------------|--------------------||


A G/A
D#|-------------------|--0--0--x--0----0--0--0--|--0--0--x--0----0--0-----|
A#|-------------------|--2--2--x--2----2--2--2--|--2--2--x--2----2--2--0--|
F#|----------------0--|--2--2--x--2----2--2--2--|--2--2--x--2----2--2--0--|
C#|----------------0--|--2--2--x--2----2--2--2--|--2--2--x--2----2--2--0--|
G#|-------------------|--0--0--x--0----0--0--0--|--0--0--x--0----0--0--0--|
D#|-------------------|-------------------------|-------------------------|


Dm Em7/ Dm Em7/ A
D#|--1--1--x--1----1--1--0--|--1--1--x--1----1--1--0--|--0--0--x--0----0--0--0--|
A#|--3--3--x--3----3--3--0--|--3--3--x--3----3--3--0--|--2--2--x--2----2--2--2--|
F#|--2--2--x--2----2--2--0--|--2--2--x--2----2--2--0--|--2--2--x--2----2--2--2--|
C#|--0--0--x--0----0--0--0--|--0--0--x--0----0--0--0--|--2--2--x--2----2--2--2--|
G#|-------------------------|-------------------------|--0--0--x--0----0--0--0--|
D#|-------------------------|-------------------------|-------------------------|


G/A F G/A
D#|--0--0--x--0----0--0-----|--1--1--x--1----1--1--1--|--1--1--x--1----1--1-----|
A#|--2--2--x--2----2--2--0--|--1--1--x--1----1--1--1--|--1--1--x--1----1--1--0--|
F#|--2--2--x--2----2--2--0--|--2--2--x--2----2--2--2--|--2--2--x--2----2--2--0--|
C#|--2--2--x--2----2--2--0--|--3--3--x--3----3--3--3--|--3--3--x--3----3--3--0--|
G#|--0--0--x--0----0--0--0--|--3--3--x--3----3--3--3--|--3--3--x--3----3--3--0--|
D#|-------------------------|--1--1--x--1----1--1--1--|--1--1--x--1----1--1-----|


C G/A A G/A
D#|--0--0--x--0----0--0-----|--0----0--0----0----0--|--0--0--0-----|
A#|--1--1--x--1----1--1--0--|--2----2--2----2----2--|--2--2--2--0--|
F#|--0--0--x--0----0--0--0--|--2----2--2----2----2--|--2--2--2--0--|
C#|--2--2--x--2----2--2--0--|--2----2--2----2----2--|--2--2--2--0--|
G#|--3--3--x--3----3--3--0--|--0----0--0----0----0--|--0--0--0--0--|
D#|-------------------------|-----------------------|--------------|


Dm Em7/ C
D#|--1--1--x--1----1--1--1--|--1--1--x--1----1--1--0--|--0--0--0--0--0--0--0--0--|
A#|--3--3--x--3----3--3--3--|--3--3--x--3----3--3--0--|--1--1--1--1--1--1--1--1--|
F#|--2--2--x--2----2--2--2--|--2--2--x--2----2--2--0--|--0--0--0--0--0--0--0--0--|
C#|--0--0--x--0----0--0--0--|--0--0--x--0----0--0--0--|--2--2--2--2--2--2--2--2--|
G#|-------------------------|-------------------------|--3--3--3--3--3--3--3--3--|
D#|-------------------------|-------------------------|--------------------------|


C G/A F G/A Db G/A
D#|--0--0--0--0--0--0--0-----|--1--1--1--1--1--1--1-----|------------------------|
A#|--1--1--1--1--1--1--1--0--|--1--1--1--1--1--1--1--0--|--6----6--6----6--6--0--|
F#|--0--0--0--0--0--0--0--0--|--2--2--2--2--2--2--2--0--|--6----6--6----6--6--0--|
C#|--2--2--2--2--2--2--2--0--|--3--3--3--3--3--3--3--0--|--6----6--6----6--6--0--|
G#|--3--3--3--3--3--3--3--0--|--3--3--3--3--3--3--3--0--|--4----4--4----4--4--0--|
D#|--------------------------|--1--1--1--1--1--1--1-----|------------------------|


F G/A C G/A
D#|--1--1--1--1--1--1--1-----|--0--0--0--0--0--0--0-----|
A#|--1--1--1--1--1--1--1--0--|--1--1--1--1--1--1--1--0--|
F#|--2--2--2--2--2--2--2--0--|--0--0--0--0--0--0--0--0--|
C#|--3--3--3--3--3--3--3--0--|--2--2--2--2--2--2--2--0--|
G#|--3--3--3--3--3--3--3--0--|--3--3--3--3--3--3--3--0--|
D#|--1--1--1--1--1--1--1-----|--------------------------|


F G/A Db G/A
D#|--1--1--1--1--1--1--1-----|------------------------|--------------------------|
A#|--1--1--1--1--1--1--1--0--|--6----x--6----6--x--0--|--------------------------|
F#|--2--2--2--2--2--2--2--0--|--6----x--6----6--x--0--|--2--2--2--0----2h3p2--0--|
C#|--3--3--3--3--3--3--3--0--|--6----x--6----6--x--0--|--------------------------|
G#|--3--3--3--3--3--3--3--0--|--4----x--4----4--x--0--|--------------------------|
D#|--1--1--1--1--1--1--1-----|------------------------|--------------------------|



D#|--------------------------|--------------------------|
A#|--------------------------|--------------------------|
F#|--2--2--2--0----2h3p2--0--|--2--2--2--0----2h3p2--0--|
C#|--------------------------|--------------------------|
G#|--------------------------|--------------------------|
D#|--------------------------|--------------------------|



D#|--------------------------|--------------------------|
A#|--------------------------|--------------------------|
F#|--2--2--2--0----2h3p2--0--|--2--2--2--0----2h3p2--0--|
C#|--------------------------|--------------------------|
G#|--------------------------|--------------------------|
D#|--------------------------|--------------------------|



D#|--------------------------|--------------------||-------------------|
A#|--------------------------|--------------------||-------------------|
F#|--2--2--2--0----2h3p2--0--|--2----------------*||----------------0--|
C#|--------------------------|-------------------*||----------------0--|
G#|--------------------------|--------------------||-------------------|
D#|--------------------------|--------------------||-------------------|


A G/A Dm Em7/
D#|--0--0--x--0----0--0--0--|--0--0--x--0----0--0-----|--1--1--x--1----1--1--0--|
A#|--2--2--x--2----2--2--2--|--2--2--x--2----2--2--0--|--3--3--x--3----3--3--0--|
F#|--2--2--x--2----2--2--2--|--2--2--x--2----2--2--0--|--2--2--x--2----2--2--0--|
C#|--2--2--x--2----2--2--2--|--2--2--x--2----2--2--0--|--0--0--x--0----0--0--0--|
G#|--0--0--x--0----0--0--0--|--0--0--x--0----0--0--0--|-------------------------|
D#|-------------------------|-------------------------|-------------------------|


Dm Em7/ A G/A
D#|--1--1--x--1----1--1--0--|--0--0--x--0----0--0--0--|--0--0--x--0----0--0-----|
A#|--3--3--x--3----3--3--0--|--2--2--x--2----2--2--2--|--2--2--x--2----2--2--0--|
F#|--2--2--x--2----2--2--0--|--2--2--x--2----2--2--2--|--2--2--x--2----2--2--0--|
C#|--0--0--x--0----0--0--0--|--2--2--x--2----2--2--2--|--2--2--x--2----2--2--0--|
G#|-------------------------|--0--0--x--0----0--0--0--|--0--0--x--0----0--0--0--|
D#|-------------------------|-------------------------|-------------------------|


F G/A C G/A
D#|--1--1--x--1----1--1--1--|--1--1--x--1----1--1-----|--0--0--x--0----0--0-----|
A#|--1--1--x--1----1--1--1--|--1--1--x--1----1--1--0--|--1--1--x--1----1--1--0--|
F#|--2--2--x--2----2--2--2--|--2--2--x--2----2--2--0--|--0--0--x--0----0--0--0--|
C#|--3--3--x--3----3--3--3--|--3--3--x--3----3--3--0--|--2--2--x--2----2--2--0--|
G#|--3--3--x--3----3--3--3--|--3--3--x--3----3--3--0--|--3--3--x--3----3--3--0--|
D#|--1--1--x--1----1--1--1--|--1--1--x--1----1--1-----|-------------------------|


A G/A Dm
D#|--0----0--0----0----0--|--0--0--0-----|--1--1--x--1----1--1--1--|
A#|--2----2--2----2----2--|--2--2--2--0--|--3--3--x--3----3--3--3--|
F#|--2----2--2----2----2--|--2--2--2--0--|--2--2--x--2----2--2--2--|
C#|--2----2--2----2----2--|--2--2--2--0--|--0--0--x--0----0--0--0--|
G#|--0----0--0----0----0--|--0--0--0--0--|-------------------------|
D#|-----------------------|--------------|-------------------------|


Em7/ C C G/A
D#|--1--1--x--1----1--1--0--|--0--0--0--0--0--0--0--0--|--0--0--0--0--0--0--0-----|
A#|--3--3--x--3----3--3--0--|--1--1--1--1--1--1--1--1--|--1--1--1--1--1--1--1--0--|
F#|--2--2--x--2----2--2--0--|--0--0--0--0--0--0--0--0--|--0--0--0--0--0--0--0--0--|
C#|--0--0--x--0----0--0--0--|--2--2--2--2--2--2--2--2--|--2--2--2--2--2--2--2--0--|
G#|-------------------------|--3--3--3--3--3--3--3--3--|--3--3--3--3--3--3--3--0--|
D#|-------------------------|--------------------------|--------------------------|


F G/A Db G/A F G/A
D#|--1--1--1--1--1--1--1-----|------------------------|--1--1--1--1--1--1--1-----|
A#|--1--1--1--1--1--1--1--0--|--6----6--6----6--6--0--|--1--1--1--1--1--1--1--0--|
F#|--2--2--2--2--2--2--2--0--|--6----6--6----6--6--0--|--2--2--2--2--2--2--2--0--|
C#|--3--3--3--3--3--3--3--0--|--6----6--6----6--6--0--|--3--3--3--3--3--3--3--0--|
G#|--3--3--3--3--3--3--3--0--|--4----4--4----4--4--0--|--3--3--3--3--3--3--3--0--|
D#|--1--1--1--1--1--1--1-----|------------------------|--1--1--1--1--1--1--1-----|


C G/A F G/A Db G/A
D#|--0--0--0--0--0--0--0-----|--1--1--1--1--1--1--1-----|------------------------|
A#|--1--1--1--1--1--1--1--0--|--1--1--1--1--1--1--1--0--|--6----x--6----6--x--0--|
F#|--0--0--0--0--0--0--0--0--|--2--2--2--2--2--2--2--0--|--6----x--6----6--x--0--|
C#|--2--2--2--2--2--2--2--0--|--3--3--3--3--3--3--3--0--|--6----x--6----6--x--0--|
G#|--3--3--3--3--3--3--3--0--|--3--3--3--3--3--3--3--0--|--4----x--4----4--x--0--|
D#|--------------------------|--1--1--1--1--1--1--1-----|------------------------|



D#|--------------------------|--------------------------|
A#|--------------------------|--------------------------|
F#|--2--2--2--0----2h3p2--0--|--2--2--2--0----2h3p2--0--|
C#|--------------------------|--------------------------|
G#|--------------------------|--------------------------|
D#|--------------------------|--------------------------|



D#|--------------------------|---------------------------||
A#|--------------------------|---------------------------||
F#|--2--2--2--0----2h3p2--0--|--2--2--2p-0--0--0--2--0--*||
C#|--------------------------|-----------------------0--*||
G#|--------------------------|---------------------------||
D#|--------------------------|---------------------------||


C G/A F G/A Db G/A
D#|--0--0--0--0--0--0--0-----|--1--1--1--1--1--1--1-----|------------------------|
A#|--1--1--1--1--1--1--1--0--|--1--1--1--1--1--1--1--0--|--6----6--6----6--6--0--|
F#|--0--0--0--0--0--0--0--0--|--2--2--2--2--2--2--2--0--|--6----6--6----6--6--0--|
C#|--2--2--2--2--2--2--2--0--|--3--3--3--3--3--3--3--0--|--6----6--6----6--6--0--|
G#|--3--3--3--3--3--3--3--0--|--3--3--3--3--3--3--3--0--|--4----4--4----4--4--0--|
D#|--------------------------|--1--1--1--1--1--1--1-----|------------------------|


F G/A C G/A
D#|--1--1--1--1--1--1--1-----|--0--0--0--0--0--0--0-----|
A#|--1--1--1--1--1--1--1--0--|--1--1--1--1--1--1--1--0--|
F#|--2--2--2--2--2--2--2--0--|--0--0--0--0--0--0--0--0--|
C#|--3--3--3--3--3--3--3--0--|--2--2--2--2--2--2--2--0--|
G#|--3--3--3--3--3--3--3--0--|--3--3--3--3--3--3--3--0--|
D#|--1--1--1--1--1--1--1-----|--------------------------|


F G/A Db G/A
D#|--1--1--1--1--1--1--1-----|------------------------|--------------------------|
A#|--1--1--1--1--1--1--1--0--|--6----x--6----6--x--0--|--------------------------|
F#|--2--2--2--2--2--2--2--0--|--6----x--6----6--x--0--|--2--2--2--0----2h3p2--0--|
C#|--3--3--3--3--3--3--3--0--|--6----x--6----6--x--0--|--------------------------|
G#|--3--3--3--3--3--3--3--0--|--4----x--4----4--x--0--|--------------------------|
D#|--1--1--1--1--1--1--1-----|------------------------|--------------------------|



D#|--------------------------|--------------------------|
A#|--------------------------|--------------------------|
F#|--2--2--2--0----2h3p2--0--|--2--2--2--0----2h3p2--0--|
C#|--------------------------|--------------------------|
G#|--------------------------|--------------------------|
D#|--------------------------|--------------------------|



D#|--------------------------|--------------------------|
A#|--------------------------|--------------------------|
F#|--2--2--2--0----2h3p2--0--|--2--2--2--0----2h3p2--0--|
C#|--------------------------|--------------------------|
G#|--------------------------|--------------------------|
D#|--------------------------|--------------------------|



D#|--------------------------|--------------------------|-----------------------|
A#|--------------------------|--------------------------|-----------------------|
F#|--2--2--2--0----2h3p2--0--|--2--2--2--0----2h3p2--0--|--2--2--2--0------2/---|
C#|--------------------------|--------------------------|-----------------------|
G#|--------------------------|--------------------------|-----------------------|
D#|--------------------------|--------------------------|-----------------------|



D#|------------------------|---------------------|--------------------------|
A#|------------------------|---------------------|--------------------------|
F#|--8/--9/10\-----9--9~---|--9~-----9~-----9\---|--2--2--2--0----2h3p2--0--|
C#|------------------------|---------------------|--------------------------|
G#|------------------------|---------------------|--------------------------|
D#|------------------------|---------------------|--------------------------|



D#|------------------------|----------------------------|
A#|------------------------|----------------------------|
F#|--2--2--2--0----2----4/-|--10~---10~-10~---10~-10~---|
C#|------------------------|----------------------------|
G#|------------------------|----------------------------|
D#|------------------------|----------------------------|



D#|-----------------------------|----------------------|-----------------------|
A#|-----------------------------|----------------------|-----------------------|
F#|--10~---10~-10~---10~-10\-9--|--9\---7--7~-----7~---|--7~---7~-7~---7~-7~---|
C#|-----------------------------|----------------------|-----------------------|
G#|-----------------------------|----------------------|-----------------------|
D#|-----------------------------|----------------------|-----------------------|



D#|------------------------|----------------------|--------------------------|
A#|------------------------|----------------------|--------------------------|
F#|--7/-9--9--9~-----9~-9~-|--9~---9~-9~-----9\---|--2--2--2--0----2h3p2--0--|
C#|------------------------|----------------------|--------------------------|
G#|------------------------|----------------------|--------------------------|
D#|------------------------|----------------------|--------------------------|



D#|------------------------|------------------------------|
A#|------------------------|------------------------------|
F#|--2--2--2--0----0--2/---|--10~---10~-10~---10~-10~-10~-|
C#|------------------------|------------------------------|
G#|------------------------|------------------------------|
D#|------------------------|------------------------------|



D#|-----------------------------|-----------------------|------------------------|
A#|-----------------------------|-----------------------|------------------------|
F#|--10~---10~-10~---10~-10\-9--|--9\---7--7~---7~---7~-|--7~---7~-7~---7~-7/-8/-|
C#|-----------------------------|-----------------------|------------------------|
G#|-----------------------------|-----------------------|------------------------|
D#|-----------------------------|-----------------------|------------------------|



D#|------------------------|-----------------------|--------------------------|
A#|------------------------|-----------------------|--------------------------|
F#|--9----9~-9~---9~-9~-9~-|--9~---9~-9~---9~-9\---|--2--2--2--0----2h3p2--0--|
C#|------------------------|-----------------------|--------------------------|
G#|------------------------|-----------------------|--------------------------|
D#|------------------------|-----------------------|--------------------------|



D#|--------------------------|-------------------||
A#|--------------------------|-------------------||
F#|--2--2--2--0----2h3p2--0--|--2----------------||
C#|--------------------------|-------------------||
G#|--------------------------|-------------------||
D#|--------------------------|-------------------||



************************************

| x Dead note
| h Hammer-on
| p Pull-off
| / Slide up
| \ Slide down
| ~ Vibrato

************************************
Tunning: Standard (E A D G B e)
Album| Unplugged In New York
Year| Nov 18, 1993/released Nov 1, 1994
Official DVD of concert| released on Nov 20, 2007
https://www.youtube.com/watch?v=fregObNcHC8


[Intro]

e|------------------|----------------------|----|
B|------------------|----------------------|----|
G|-2-2-2-0--2h3p2-0-|-2-2-2-0--2h3p2-0-----|-2~-|
D|------------------|----------------------|----|
A|------------------|----------------------|----|
E|------------------|----------------------|----|


[Verse]
A Dm
We passed upon the stair spoke of was and when
A F
Although I wasn't there he said I was his friend
C A
Which came as a surprise I spoke into his eyes
Dm C5
I thought you died alone a long long time ago


[Instrumental]

C5 C5


[Chorus]

e|-------------------------------------------------------|
B|-------------------------------------------------------|
G|-------------2-3-5-------------------------------------|
D|------2-3-5--------------------0-2-3--------3----------|
A|-3-5---------------------0-1-3----------4-4---4--------|
E|--------------------1-3--------------------------------|

e|-------------------------------------------------------|
B|-------------------------------------------------------|
G|--------------------------------2-3-5------------------|
D|-------------0-2-3-------2-3-5-------------------0-2-3-|
A|------0-1-3---------3-5--------------------0-1-3-------|
E|-1-3-----------------------------------1-3-------------|

e|-------------------------|
B|--6--x-6-6-6-------------|
G|--6--x-6-6-6-------------|
D|--6--x-6-6-6-------------|
A|--4--x-4-4-4-------------|
E|-------------------------|


[Instrumental]

e|------------------|----------------------|----|
B|------------------|----------------------|----|
G|-2-2-2-0--2h3p2-0-|-2-2-2-0--2h3p2-0-----|-2~-|
D|------------------|----------------------|----|
A|------------------|----------------------|----|
E|------------------|----------------------|----|


[Verse 2]

A Dm
I laughed and shook his hand and made my way back home
A F
I searched for foreign land for years and years I roamed
C A
I gazed a gazeless stare we marched a million hills
Dm C5
I must have died alone a long long time ago


[Chorus]

e|-------------------------------------------------------|
B|-------------------------------------------------------|
G|-------------2-3-5-------------------------------------|
D|------2-3-5--------------------0-2-3--------3----------|
A|-3-5---------------------0-1-3----------4-4---4--------|
E|--------------------1-3--------------------------------|

e|-------------------------------------------------------|
B|-------------------------------------------------------|
G|--------------------------------2-3-5------------------|
D|-------------0-2-3-------2-3-5-------------------0-2-3-|
A|------0-1-3---------3-5--------------------0-1-3-------|
E|-1-3-----------------------------------1-3-------------|

e|-------------------------|
B|--6--x-6-6-6-------------|
G|--6--x-6-6-6-------------|
D|--6--x-6-6-6-------------|
A|--4--x-4-4-4-------------|
E|-------------------------|


[Instrumental]

e|------------------|----------------------|----|
B|------------------|----------------------|----|
G|-2-2-2-0--2h3p2-0-|-2-2-2-0--2h3p2-0-----|-2~-|
D|------------------|----------------------|----|
A|------------------|----------------------|----|
E|------------------|----------------------|----|


[Chorus]

e|-------------------------------------------------------|
B|-------------------------------------------------------|
G|-------------2-3-5-------------------------------------|
D|------2-3-5--------------------0-2-3--------3----------|
A|-3-5---------------------0-1-3----------4-4---4--------|
E|--------------------1-3--------------------------------|

e|-------------------------------------------------------|
B|-------------------------------------------------------|
G|--------------------------------2-3-5------------------|
D|-------------0-2-3-------2-3-5-------------------0-2-3-|
A|------0-1-3---------3-5--------------------0-1-3-------|
E|-1-3-----------------------------------1-3-------------|

e|-------------------------|
B|--6--x-6-6-6-------------|
G|--6--x-6-6-6-------------|
D|--6--x-6-6-6-------------|
A|--4--x-4-4-4-------------|
E|-------------------------|


[Instrumental]

e|------------------|----------------------|----|
B|------------------|----------------------|----|
G|-2-2-2-0--2h3p2-0-|-2-2-2-0--2h3p2-0-----|-2~-|
D|------------------|----------------------|----|
A|------------------|----------------------|----|
E|------------------|----------------------|----|


[Solo]

e|--------------------------------------------------------|
B|--------------------------------------------------------|
G|-2-2-2-0--2h3p2-0--2-2-2-0--2/8/9/10--9-10\9-9-9-9-9\---|
D|--------------------------------------------------------|
A|--------------------------------------------------------|
E|--------------------------------------------------------|

Play through next 2 bars twice
e|--------------------------------------------------------------|
B|--------------------------------------------------------------|
G|-2-2-2-0--2h3p2-0--2-2-2-0--2--4/10-10--10-10-10--10-10-10\9--|
D|--------------------------------------------------------------|
A|--------------------------------------------------------------|
E|--------------------------------------------------------------|

e|--------------------------------------------------------|
B|--------------------------------------------------------|
G|-9\7-7--7-7--7-7-7-7--7/9-9-9--9-9-9--9-9--9\-----------|
D|--------------------------------------------------------|
A|--------------------------------------------------------|
E|--------------------------------------------------------|

e|--------------------------------------------------------|
B|--------------------------------------------------------|
G|-2-2-2-0--2h3p2-0--2-2-2-0--2h3p2-0----2~~~-------------|
D|--------------------------------------------------------|
A|--------------------------------------------------------|
E|--------------------------------------------------------|



***********************************
| / Slide up
| \ Slide down
| h Hummer-on
| p Pull-off
| ~ Vibrato
| x Dead note
***********************************
Song info
The Man Who Sold The World
Nirvana
2001
  • Rock
  • Grunge
Alternative tracks
Similar songs
Dumb - Nirvana
Mr Moustache - Nirvana
On A Plain - Nirvana

Hi! Hope you enjoy backing track experience.
If you want to help us in the development of the project, feel free to donate!